Tuning: Standard

	This is one of my favorites from Demi. 
	The way she performs it is amazing.
	Play all the notes in the chorus and vereses short 
	and disconnected. 
	Have fun!

	i made the bridge 10 times less complicated so 
	hopefully it will make it easier to play.


Verse
	"Did you forget..."
e|-----------------------------------------------------------------------|
B|-----------------------------------------------------------------------|
G|-9-9-9-9-9-9-9-9---9-9-9-9-9-9-9-9---6-6-6-6-6-6-6-6---7-7-7-7-7-7-7-7-|
D|-x-x-x-x-x-x-x-x---x-x-x-x-x-x-x-x---x-x-x-x-x-x-x-x---x-x-x-x-x-x-x-x-|
A|-7-7-7-7-7-7-7-7---6-6-6-6-6-6-6-6---4-4-4-4-4-4-4-4---5-5-5-5-5-5-5-5-|
E|-----------------------------------------------------------------------|

e|-----------------------------------------------------------------------|
B|-----------------------------------------------------------------------|
G|-------------------5-5-5-5-5-5-5-5---9-9-9-9-9-9-9-9---9-9-9-9-9-9-9-9-|
D|-7-7-7-7-7-7-7-7---5-5-5-5-5-5-5-5---x-x-x-x-x-x-x-x---x-x-x-x-x-x-x-x-| x2
A|-x-x-x-x-x-x-x-x---x-x-x-x-x-x-x-x---7-7-7-7-7-7-7-7---6-6-6-6-6-6-6-6-|
E|-5-5-5-5-5-5-5-5---5-5-5-5-5-5-5-5-------------------------------------|

Chorus
	"But somewhere we went wrong..."
e|-------------------------------------|
B|-------------------------------------|
G|-----------9-9-9-9-------------------|
D|-7-7-7-7---x-x-x-x---9-9-9-9-9-9-9-9-| x4
A|-x-x-x-x---7-7-7-7---x-x-x-x-x-x-x-x-|
E|-5-5-5-5-------------7-7-7-7-7-7-7-7-|

Verse
	"So now i guess..."
e|-----------------------------------------------------------------------|
B|-----------------------------------------------------------------------|
G|-9-9-9-9-9-9-9-9---9-9-9-9-9-9-9-9---6-6-6-6-6-6-6-6---7-7-7-7-7-7-7-7-|
D|-x-x-x-x-x-x-x-x---x-x-x-x-x-x-x-x---x-x-x-x-x-x-x-x---x-x-x-x-x-x-x-x-|
A|-7-7-7-7-7-7-7-7---6-6-6-6-6-6-6-6---4-4-4-4-4-4-4-4---5-5-5-5-5-5-5-5-|
E|-----------------------------------------------------------------------|

e|-----------------------------------------------------------------------|
B|-----------------------------------------------------------------------|
G|-------------------5-5-5-5-5-5-5-5---9-9-9-9-9-9-9-9---9-9-9-9-9-9-9-9-|
D|-7-7-7-7-7-7-7-7---5-5-5-5-5-5-5-5---x-x-x-x-x-x-x-x---x-x-x-x-x-x-x-x-| x2
A|-x-x-x-x-x-x-x-x---x-x-x-x-x-x-x-x---7-7-7-7-7-7-7-7---6-6-6-6-6-6-6-6-|
E|-5-5-5-5-5-5-5-5---5-5-5-5-5-5-5-5-------------------------------------|

Chorus
	"But somewhere we went wrong..."
e|-------------------------------------|
B|-------------------------------------|
G|-----------9-9-9-9-------------------|
D|-7-7-7-7---x-x-x-x---9-9-9-9-9-9-9-9-| x4
A|-x-x-x-x---7-7-7-7---x-x-x-x-x-x-x-x-|
E|-5-5-5-5-------------7-7-7-7-7-7-7-7-|


Bridge

e|------------------------------------------------------------------------------|
B|------------------------------------------------------------------------------|
G|-------------9-9-9-9-------------------------------9-9-9-9--------------------|
D|---7-7-7-7---9-9-9-9---9-9-9-9-9-9-9-9---7-7-7-7---9-9-9-9---9-9-9-9-9-9-9-9--|
A|---7-7-7-7---7-7-7-7---9-9-9-9-9-9-9-9---7-7-7-7---7-7-7-7---9-9-9-9-9-9-9-9--|
E|---5-5-5-5-------------7-7-7-7-7-7-7-7---5-5-5-5-------------7-7-7-7-7-7-7-7--|

	"Somewhere we went wrong..."
e|-----------------------------------------------------------------|
B|-----------------------------------------------------------------|
G|-------------9-9-----------------------------------9-9-----------|
D|---7-7-------9-9-------9-9-9-9-9-9-9-9---7-7-------9-9-------9~--|
A|---7-7-------7-7-------9-9-9-9-9-9-9-9---7-7-------7-7-------9~--|
E|---5-5-----------------7-7-7-7-7-7-7-7---5-5-----------------7~--|

e|-------------------------------------------------------------------------|
B|-------------------------------------------------------------------------|
G|-------------9-9-9-9-------------------------------9-9-9-9---------------|
D|---7-7-7-7---9-9-9-9---9-9-9-9-9-9-9-9---7-7-7-7---9-9-9-9---9~--9~--9~--|
A|---7-7-7-7---7-7-7-7---9-9-9-9-9-9-9-9---7-7-7-7---7-7-7-7---9~--9~--9~--|
E|---5-5-5-5-------------7-7-7-7-7-7-7-7---5-5-5-5-------------7~--7~--7~--|

Verse
	"At last.."
e|-----------------------------------------------------------------------|
B|-----------------------------------------------------------------------|
G|-9-9-9-9-9-9-9-9---9-9-9-9-9-9-9-9---6-6-6-6-6-6-6-6---7-7-7-7-7-7-7-7-|
D|-x-x-x-x-x-x-x-x---x-x-x-x-x-x-x-x---x-x-x-x-x-x-x-x---x-x-x-x-x-x-x-x-|
A|-7-7-7-7-7-7-7-7---6-6-6-6-6-6-6-6---4-4-4-4-4-4-4-4---5-5-5-5-5-5-5-5-|
E|-----------------------------------------------------------------------|

e|-----------------------------------------------------------------------|
B|-----------------------------------------------------------------------|
G|-------------------5-5-5-5-5-5-5-5---9-9-9-9-9-9-9-9---9-9-9-9-9-9-9-9-|
D|-7-7-7-7-7-7-7-7---5-5-5-5-5-5-5-5---x-x-x-x-x-x-x-x---x-x-x-x-x-x-x-x-|
A|-x-x-x-x-x-x-x-x---x-x-x-x-x-x-x-x---7-7-7-7-7-7-7-7---6-6-6-6-6-6-6-6-|
E|-5-5-5-5-5-5-5-5---5-5-5-5-5-5-5-5-------------------------------------|

	"But somewhere we went wrong..."
e|-------------------------------------|
B|-------------------------------------|
G|-----------9~------------------------|
D|-7~--------x~--------9~--------------| x3
A|-x~--------7~--------x~--------------|
E|-5~------------------7~--------------|

	"You've forgotten...about...us."
e|----------------------------------------|
B|----------------------------------------|
G|-----------9~----------------------9~---|
D|-7~--------x~--------9~-----------7-----| 
A|-x~--------7~--------x~----------7------|
E|-5~------------------7~---------0-------|


| / slide up
|  slide down
| h hammer-on
| p pull-off
| ~ vibrato
| + harmonic
| x Mute note


Текст, аккорды и табулатура для песни "Forget", исполняет "Demi Lovato".
Используемые в песне аккорды можно найти в разделе Как брать аккорды. Аккорды для шестиструнной гитары. Другие песни можно найти на нашем сайте, воспользовавшись алфавитным указателем вверху страницы.


 
Ошибка в тексте? Выделите ошибку и нажмите Ctrl+Enter