Dsus2  Dsus4/G  Bm    Asus2
e:|----0---|----3---|----2---|----0---|--------------|
h:|--3---3-|--3---3-|--3---3-|--0---0-|--------------|
g:|-2-2-2-2|-2-2-2-2|-4-4-4-4|-2-2-2-2|-----play-----|
D:|0-------|--------|--------|--------|----2-times---|
A:|--------|--------|2-------|0-------|--------------|
E:|--------|3-------|--------|--------|--------------|


   Dsus2  Dsus4/   Bm    Asus2
e:|----0---|----3---|----2---|-----0~~|-------------------------------------|
h:|--3---3-|--3---3-|--3---3-|--2p0---|-------------------------------------|
g:|-2-2-2-2|-2-2-2-2|-4-4-4-4|--------|-------------------------------------|
D:|0-------|--------|--------|-2------|-------------------------------------|
A:|--------|--------|2-------|0-------|---2-5-5-------------5-5-------------|
E:|--------|3-------|--------|--------|---------2-2-3-3-3333---2-2-3-3-3333-|

Then start with chords.


Enjoy.


Текст, аккорды и табулатура для песни "Brand New Day", исполняет "Demi Lovato".
Используемые в песне аккорды можно найти в разделе Как брать аккорды. Аккорды для шестиструнной гитары. Другие песни можно найти на нашем сайте, воспользовавшись алфавитным указателем вверху страницы.


 
Ошибка в тексте? Выделите ошибку и нажмите Ctrl+Enter