Song: History Maker
Artist: Delirious?
Album: Deeper
Tabbed By: damcc3

This song totally rox (but it gets a bit boring) and the 
words are awesome so here u go!

Intro:   (x2)
g|-------------------------------------------------------
d|-------------------------------------------------------
a|-000-000-0-00-000-00-0-0-00----------------------------
e|----------------------------111-111-1-11-111-111-1-11--

Verse:
g|-------------------------------------------------------
d|-------------------------------------------------------
a|-000-000-0-00-000-00-0-0-00----------------------------
e|----------------------------111-111-1-11-111-111-1-11--

g|-------------------------------------------------------
d|-------------------------------------------------------
a|-000-000-0-00-000-00-0-0-00----------------------------
e|----------------------------111-111-1-11-111-111-1-11--

Pre-chorus:
g|------------------------------------------------------------
d|------------------------------------------------------------
a|------------------------------------------33333333-22222222-
e|-3-33-33-33-3-3-3-3331-11-11-11-1-1-1-1-1-------------------

g|--------------------
d|--------------------
a|-00000000-----------
e|----------11111111--

Verse:
g|-------------------------------------------------------
d|-------------------------------------------------------
a|-000-000-0-00-000-00-0-0-00----------------------------
e|----------------------------111-111-1-11-111-111-1-11--

g|-------------------------------------------------------
d|-------------------------------------------------------
a|-000-000-0-00-000-00-0-0-00----------------------------
e|----------------------------111-111-1-11-111-111-1-11--

Pre-chorus:
g|------------------------------------------------------------
d|------------------------------------------------------------
a|------------------------------------------33333333-22222222-
e|-3-33-33-33-3-3-3-3331-11-11-11-1-1-1-1-1-------------------

g|--------------------
d|--------------------
a|-00000000-----------
e|----------11111111--

Chorus:
g|---------------------------------------------------------------
d|---------------------------------------------------------------
a|-33333333-33333333-00000000----------33333333-33333333-00000000
e|----------------------------11111111---------------------------

g|---------------------------------------------------------------
d|---------------------------------------------------------------
a|----------33333333-22222222-00000000----------33333333-22222222
e|-11111111----------------------------11111111------------------

g|---------------------------------------------------------------
d|---------------------------------------------------------------
a|-00000000------------------------------------------------------
e|----------11111111---------------------------------------------

Verse(x2):
g|-------------------------------------------------------
d|-------------------------------------------------------
a|-000-000-0-00-000-00-0-0-00----------------------------
e|----------------------------111-111-1-11-111-111-1-11--

g|-------------------------------------------------------
d|-------------------------------------------------------
a|-000-000-0-00-000-00-0-0-00----------------------------
e|----------------------------111-111-1-11-111-111-1-11--


Pre-chorus:
g|------------------------------------------------------------
d|------------------------------------------------------------
a|------------------------------------------33333333-22222222-
e|-3-33-33-33-3-3-3-3331-11-11-11-1-1-1-1-1-------------------

g|--------------------
d|--------------------
a|-00000000-----------
e|----------11111111--

Chorus(x2):
g|---------------------------------------------------------------
d|---------------------------------------------------------------
a|-33333333-33333333-00000000----------33333333-33333333-00000000
e|----------------------------11111111---------------------------

g|---------------------------------------------------------------
d|---------------------------------------------------------------
a|----------33333333-22222222-00000000----------33333333-22222222
e|-11111111----------------------------11111111------------------

g|---------------------------------------------------------------
d|---------------------------------------------------------------
a|-00000000------------------------------------------------------
e|----------11111111---------------------------------------------

Extra bit:
g|--------------------------------------
d|--------------------------------------
a|-33333333-33333333-00000000----------3
e|----------------------------11111111--

play this 4 a while(x5):
g|-------------------------------------
d|-------------------------------------
a|-33333333-33333333-00000000----------
e|----------------------------11111111-

Chorus:
g|---------------------------------------------------------------
d|---------------------------------------------------------------
a|-33333333-33333333-00000000----------33333333-33333333-00000000
e|----------------------------11111111---------------------------

g|---------------------------------------------------------------
d|---------------------------------------------------------------
a|----------33333333-22222222-00000000----------33333333-22222222
e|-11111111----------------------------11111111------------------

g|---------------------------------------------------------------
d|---------------------------------------------------------------
a|-00000000------------------------------------------------------
e|----------11111111---------------------------------------------

now it gets really boring (x4):
g|-------------------------------------
d|-------------------------------------
a|-33333333-33333333-00000000----------
e|----------------------------11111111-

end on the 3rd fret on the a string and fade out.

corrections or anything send to [email protected]
God Rox!


Текст, аккорды и табулатура для песни "History Maker", исполняет "Deliriou5".
Используемые в песне аккорды можно найти в разделе Как брать аккорды. Аккорды для шестиструнной гитары. Другие песни можно найти на нашем сайте, воспользовавшись алфавитным указателем вверху страницы.


 
Ошибка в тексте? Выделите ошибку и нажмите Ctrl+Enter