deeper
deliriou5? (or something like that)
king of fools
tabbed by jared gardner     [email protected]

the chorus and the verses are the same, 2x for both
G|----------------------------------------------
D|----------------------------------------------
A|-7--7-7-7--7-7--7-7--7------------------------
E|------------------------7--7-7-7--7-7--7-7--7-

G|----------------------------------------------|
D|----------------------------------------------|
A|----------------------------------------------|
E|-9--9-9-9--9-9--9-9--9--5--5-5-5--5-4--4-5--5-|

prechorus, 2x
G|-----------------------------------------------------------------|
D|-----------------------------------------------------------------|
A|-7-7-7-7-7-7-7-7-0-0-0-0-0-0-0-0---------------------------------|
E|---------------------------------9-9-9-9-9-9-9-9-7-7-7-7-7-7-7-7-|

creative little ending
G|-----------|
D|-----------|
A|-0-0-0-0-0-|
E|-----------|

i don't think this is right - as a matter of fact, i'm sure it's not - 
but it's a really popular song, so i just wanted to get it out there
(even though i don't like it that much) . . . somebody better than me 
can take it from here . . . when somebody figures it out, send it to me:
[email protected]


Текст, аккорды и табулатура для песни "Deeper", исполняет "Deliriou5".
Используемые в песне аккорды можно найти в разделе Как брать аккорды. Аккорды для шестиструнной гитары. Другие песни можно найти на нашем сайте, воспользовавшись алфавитным указателем вверху страницы.


 
Ошибка в тексте? Выделите ошибку и нажмите Ctrl+Enter