Вступление: G||---2-3-|-------3-|---2-3-|-----3----| \
            D||--0----|----0-3--|--0----|--1-3-3-1-|  \
            A||-------|-1-3-----|-------|----------|  / 8 раз
            E||-3-----|---------|-3-----|-4--------| /

Am                F
Она живет в ноябре,
C                E
С выходящим на север окном.
Am           F
В комнате города,
C               E
Рвущего стены дождем.

Она мечтает увидеть
Бушующий пеной залив,
Там, где волны ломают
Усталый коралловый риф...

Проигрыш = вступление 

Она так одинока
В этом странном квартале мечты,
Где таких, как она,
Принимают пустые углы,

Где на завтрак едят
Кипяченые запахи снов,
Где живут продавцы
Нарисованных трав и цветов.

Проигрыш

Соло (2 раза):  

e||-6-8-6----|-5-6-5----|-3-5-3----|-1-3-1---------| \
H||--------7-|--------3-|--------3-|------1--3-3-3-|  > 2 раза
G||----------|----------|----------|---------------| /

e||-------------|-1-5--1-1-3-|--------------|--------------|
H||-----1-3-1-3-|------------|-1-3-1--1-1-3-|-1-1-1--3-3-3-|
G||--0-3-----3--|------------|----3---------|3-------------|
D||-3-----------|------------|--------------|--------------|

e||-6-8-6---|-5-6-5---|-3-5-3---|-10---8-----|-----|
H||-------7-|-------3-|-------3-|------------|-----|
G||---------|---------|---------|----------7-|-(5)-|

Кода = проигрыш


Текст, аккорды и табулатура для песни "Окно", исполняет "Дельфин".
Используемые в песне аккорды можно найти в разделе Как брать аккорды. Аккорды для шестиструнной гитары. Другие песни можно найти на нашем сайте, воспользовавшись алфавитным указателем вверху страницы.


 
Ошибка в тексте? Выделите ошибку и нажмите Ctrl+Enter