Asus2                             Fsus2                  Gsus2
E|-------------------------|----------------------|----------------------|
H|--------0--------0-------|----------------------|----------------------|
G|-------------------------|----------------0-----|----------------2-----|
D|-----2-----2----------2--|----------------------|-------------0-----0--|
A|--0-----------0----------|-------------3-----3--|----------------------|
E|-------------------------|----------1-----------|----------3-----------|
                                                                          
|-------------------------|----------------------|-----------------------|
|--------0--------0-------|----------------------|--------------5--------|
|-------------------------|----------------0-----|-----------------5--2--|
|-----2-----2----------2--|----------------------|-----------0-----------|
|--0-----------0----------|-------------3-----3--|-----------------------|
|-------------------------|----------1-----------|--------3--------------|

Asus2 
Они плывут издалека несмело
                  Fsus2
Покачиваясь на ветрах полынных
                      Gsus2
И то, что справа, - это я
И каравелла моя меняет формы очертаний дымных
И нам веками некуда спешить
Наш путь обременен безвольностью свободы
Мы может только плыть, и плыть, и плыть
Кружась вокруг земли бессмертным хороводом

Мы провожаем дни, облив одежды кровью
Багряной свастики небес
Встречая их, прижавшись к изголовью
Ни нитки распуская золотой парчи обрез
Мы v души тех, кого хоронят рядом
От безнадежности мертвых в сорока шагах
Насквозь пронизанных манной звездопадов
Мы отражаемся в бесчисленных глазах

Проигрыш: Em/+9 Em/9 Em/+9 Em/9 Hm 
          Em/+9 Em/9 Em/+9 Em/9 Hm
          Em Esus4 Hm
          Em Esus4 Hm
          	
    E5             Em  
Мы живые, легкие, нежные
  Hm
Плещемся в патоке ослепительно-бирюзовой
Пропадаем в края безбрежные
Становимся чем-то новым
И тянутся усталой вереницей
Меняя неба нескончаемый узор
Огромные беспомощные птицы
Дорогу к дому ищут до сих пор

Em/+9: xx2003
Em/9: xx2002
Hm: x2443x
E5: 0xx457 \
Em: 0xx453 / в последнем куплете


Текст, аккорды и табулатура для песни "Облака", исполняет "Дельфин".
Используемые в песне аккорды можно найти в разделе Как брать аккорды. Аккорды для шестиструнной гитары. Другие песни можно найти на нашем сайте, воспользовавшись алфавитным указателем вверху страницы.


 
Ошибка в тексте? Выделите ошибку и нажмите Ctrl+Enter