(в начале играется так):
G--4--7--5------4----|
D--------------------|
A--------------------|
E--------------------|

(потом во время куплета играется так):
G-----4--------------|
D--------0--2--4-----|
A---2----------------|
E--------------------|

Это больше, чем мое сердце,
Это страшнее прыжка с крыши
Ээто громче крика бешеного
Но гораздо тише писка забитой мыши
Это то, что каждый всю жизнь ищет
Находит, теряет, находит вновь
Это то, что в белой фате со злобным оскалом по свету рыщет
Я говорю тебе про любовь

(в припеве играется  слайдами):
G-----------------------------|
D-----------------------------|
A--2---2->5---5->7---7->5-----|
E-----------------------------|
Па-па па па

Она сама по себе невесома
Она легче чем твои мысли
Но вспомни как душу рвало когда она уходила
Как на глазах твоих слезы висли
Она руками своими нежными петрлю на шею тебе набросит
Не оставляя от тебя ничего прежнего сама на цыпочки встать попросит
Ты даже не сможешь ее увидеть
Ты никогда не заглянешь в ее глаза
А думаешь только о том как бы ее необитеть
Не веря в то что она действительно зла
Ты можешь с ней расцвести и засохнуть
Она сожрет тебя как цветок тля
Но все равно лучше уж так сдохнуть
Чем никого никогда не любя

Па-па па па

С ней хорошо без нее как-то странно
Мне нехватает ее слез радости
Если она пришла то тут же уходит
Плавно кидая в лицо какие-то гадости
И я держу свою дверь закрытой (закрытой)
Что бы стучалась она перед тем как ко мне войти
Что бы не оказалась она той мною давно забытой
...То есть с которой мне не по пути

G--4--7--5------4----|
D--------------------|
A--------------------|
E--------------------|

G-----------------------------|
D-----------------------------|
A--2---2->5---5->7---7->5-----|
E-----------------------------|
Па-па па па

(и концовка такая)
G--4--7--5------4------|
D----------------------|
A--------------------2-|
E----------------------|


Текст, аккорды и табулатура для песни "Любовь", исполняет "Дельфин".
Используемые в песне аккорды можно найти в разделе Как брать аккорды. Аккорды для шестиструнной гитары. Другие песни можно найти на нашем сайте, воспользовавшись алфавитным указателем вверху страницы.


 
Ошибка в тексте? Выделите ошибку и нажмите Ctrl+Enter