басы примерно такие
g--------------------------------------------------------
d--------------4-4--4-4--4-4---------------5-5--5-5--5-4-
a-5-5--5-5--5-5--------------2-2--2-2--2-2---------------
e--------------------------------------------------------

fig1(2 times)
e-----2--------7--5---3-2----2------7-5-|
h-3-----------------------3-------------|
g--------4--2------------------4--2-----|
d---------------------------------------|
a---------------------------------------|
e---------------------------------------|

Я охапками листья кидаю в костер 
Синим дымом подпирая бледный неба шатер 
Они пеплом взлетают прогорев до конца 
Я рукою стираю хлопья сажи с лица 
Как удто так уже было это просто усталость 
Безразличием камня в моем сердце осталось 
Пламя шорохом смерти жжет сухую листву 
Это лучше чем гнить дожидаясь весну 

chorus:
   Hm                         A
     Открой мне дверь и я войду 
    G                  A
     И принесу с собою осень 
   Hm                   A
     И если ты меня попросишь 
    G                  A
     Тебе отдам ее я всю 

Стоит простить тех кто мелок душою 
Их обиды наполнят лужи грязью одною 
И свою отраженье в мутной глади воды 
Я прицельно разрушу белой пеной слюны 
Золото сыплется с усталого дерева 
Тут же ветер ворует то что было потеряно 
Он хватает что попадя сильной лапою хищника 
И тянут деревья руки-ветки как нищенка 

chorus.
                                      by 3rd time
e--17------------------------------|-----
h------15---19---15---14---15---17-|--12-

Сколько прожито лет сколько прожито дней 
Это кто как считает для кого как важней 
Что-то сделано мною или сделано что-то 
И что для себя ну а что для кого-то 
Счастье в секундах маленьких острых, 
Щедрое к детям и скупое для взрослых 
Липкой почкой набухнет долгожданной весною 
Чтобы осенью стать в костре горящей листвою 

chorus.


Текст, аккорды и табулатура для песни "Дверь", исполняет "Дельфин".
Используемые в песне аккорды можно найти в разделе Как брать аккорды. Аккорды для шестиструнной гитары. Другие песни можно найти на нашем сайте, воспользовавшись алфавитным указателем вверху страницы.


 
Ошибка в тексте? Выделите ошибку и нажмите Ctrl+Enter