E,A,D,G,B,E
{{{Guitar}}}
intro nh=NATURAL HARMONIC
   nh nh nh
E--12----------
B-----12-------
G--------12----
D--------------
A--------------
E--------------

перед боем 
A-------------------
E--0~~~~~~~~--------

        Em        F Em
припев     xx x x     xx x xx
E--------------------
B--------------------
G--------------------
D----|--2--22-2-2-3-2-22-2-22----
A----|--2--22-2-2-3-2-22-2-22----
E--7|--0--00-0-0-1-0-00-0-00----
           pm----     pm-----

слайд только в первом проигрыше

Куплет
   Em
E----------
B----------
G----------
D--2~~----- задержка x 2
A--2~~-----
E--0~~-----

Natur.Harmon.
E--12-------7-----5------
B-----12------7-----5----
G--------12-----7-----5-- x 2
D------------------------
A------------------------
E------------------------

В конце первого куплета 
пред началом припева есть момент
                     Em
E--------19-20-------19----
B--18h19-------18-19-------
G--------------------------
D--------------------------
A--------------------------
E--------------------------

Bridge
E-----------------
B-----------------
G-----------------
D--2--2--2--2-----
A--2--2--2--2-----
E--0--0--0--0-----

{{{BASS}}}
Припев
G-----------------------
D-----------------------
A-----------------------
E--0-xx-x-x-1-0-xx-x-xx-

Куплет
G---------------
D--------------- X 2
A---------------
E--0~~~~--------

Bridge
G------------
D------------
A------------
E--0-0-0-0---


Куплет 1:
Em
Сны растворяют сознание жизни
Реалностью стал бешенный миф
Который мои чувства решает смысла
Блокируя память о том что я жив
Em
Жидкое небо внедряется в вену
Пену взбивая в мозга, страх
Проходит раздвигая мне стену
Беспредельного чувства в новых мирах
N.H.
Крест к которому я приколочен инсулиновый иглой
Кровоточит руки мои, в точках разврата
Все кончится здесь, жизни времени трата
Не оправданна
N.H.
Скорым концом
Горсть земли станет венцом
Для меня и таких же как я
умирающим в серости каждего нового дня

Припев:
     Em         F Em   
Я хочу умереть за Исуса Христа
  Em             F Em
И пусть его пулей станет игла
  Em              F Em     
И пусть моим телом станут вены руки
     Em         F Em
Я хочу умереть от великой любви

Куплет 2:
Em
Десять тысяч способов смерти 
Вам предоставит страховое агенство
Я выбираю один лишь способ
Удовлетворяющий мою особь
Em
Способ не лишенный измены
Но откланяющий вскрытие вены
А также полеты с высотных зданий
И на мыльной веревки удушливых зависаний
N.H.
Хватит, достаточно времени было
Чтобы жить красиво два часа до обрыва
А может быть и два года
Но это теории другого рода
N.H.
Я качусь вниз по наклонной
Жизнь была достаточно полной
Реактивами влитами в кровь
Я умираю за большую любовь

Припев


Текст, аккорды и табулатура для песни "Я хочу умереть", исполняет "Дельфин".
Используемые в песне аккорды можно найти в разделе Как брать аккорды. Аккорды для шестиструнной гитары. Другие песни можно найти на нашем сайте, воспользовавшись алфавитным указателем вверху страницы.


 
Ошибка в тексте? Выделите ошибку и нажмите Ctrl+Enter