---------------------------------------------------------------
DEL AMITRI - ROLL TO ME (J. CURRIE)
---------------------------------------------------------------
Tabbed by: PJVillanueva


Intro    Asus2

         E   Abm+5  F#m11   Asus2  
      
         E   Abm+5  F#m11   


E          Abm+5 F#m11         Asus2   
Look around your world pretty baby

      E    Abm+5     F#m11      Bsus4  E
Is it everything you hoped it'd be

          Abm+5     F#m11         Asus2  E
The wrong guy, the wrong situation

          F#m11   Asus2   E   Abm+5   F#m11  
The right time to roll to me

  Asus2 E   Abm+5  F#m11  
Roll to me

                          E   Abm+5   F#m11  


E       Abm+5  F#m11           Asus2
Look into your heart pretty baby ,

      E          Abm+5 F#m11        Bsus4
Is it aching with some nameless need .

         E             Abm+5     F#m11                Asus2  E
Is there something wrong and you can't put your finger on it

      F#m11 Asus2   E   A   E
Right then, roll to me



      E7                   Am          Abm+4         F#m11
And I don't think I have ever seen a soul so in despair

     Abm+5           Aaad9        
So if you want to talk the night through

  F#m11              B  B7  B6  B
Guess who will be there?


   E          Abm+5  F#m11         Asus2     
So don't try to deny it pretty baby ,

            E          Abm+5     F#m11      Asus2
You've been down so long you can hardly see

         E               Abm+5   F#m11        Asus2  E        
When the engine's stalled and it won't stop raining

               F#m11   Asus2   E                               
It's the right time to roll to me

               F#m11   Asus2   E     
                       roll to me

               F#m11   Asus2   E     
                       roll to me

               F#m11   Asus2   E



      E7                   Am          Abm+4         F#m11
And I don't think I have ever seen a soul so in despair

     Abm+5           Aaad9        
So if you want to talk the night through

  F#m11              B  B7  B6  B
Guess who will be there?        So



E         Abm+5  F#m11           Asus2
Look around your world pretty baby

      E        Abm+5 F#m11        Bsus4  E   
Is it everything you hoped it'd be

            Abm+5     F#m11      Asus2 E
The wrong guy, the wrong situation

          F#m11   Asus2   E
The right time to roll to me

          F#m11   Asus2   E
The right time to roll to me

          F#m11   Asus2   F#m11.......
The right time to roll to me      uh..


E  F#m11  Asus2  E
.....








Intro



  Asus2 ЕЕЕЕЕЕЕЕЕЕЕЕЕЕЕЕЕЕЕЕЕЕЕЕЕЕЕЕЕЕЕЕЕ E
e|0--- ---- ---- ----|---- ---- ---- ----|0-0- 0-0- 0-0- 0-0-|
B|0------------------|-------------------|0-0--0-0--0-0--0-0-|
G|2------------------|-------------------|1-1--1-1--1-1--1-2-|
D|2------------------|-------------------|2-2--2-2--2-2--2-4-|
A|0------------------|-------------------|2-2--2-2--2-2--2-4-|
E|-------------------|-------------------|-------------------|

e|---- ---- ---- ----|---- ---- ---- ----|---- ---- ---- ----|
B|-------------------|-------------------|-------------------|
G|-------------------|-------------------|--1----------------|
D|-------------------|-------------------|----------4--------|
A|-------------------|-------------------|2------2-----------|
E|-------------------|-------------------|-------------------|



  F#m11               E                   F#m11
e|--0- 0-0- 0-0- 0-0-|0-0- 0-0- 0-0- 0-0-|--0- 0-0- 0-0- 0-0-|
B|--0--0-0--0-0--0-0-|0-0--0-0--0-0--0-0-|--0--0-0--0-0--0-0-|
G|--2--2-2--2-2--2-2-|1-1--1-1--1-1--1-2-|--2--2-2--2-2--2-2-|
D|--4--4-4--4-4--4-4-|2-2--2-2--2-2--2-4-|--4--4-4--4-4--4-4-|
A|--4--4-4--4-4--4-4-|2-2--2-2--2-2--2-4-|--4--4-4--4-4--4-4-|
E|-------------------|-------------------|-------------------|

e|---- ---- ---- ----|---- ---- ---- ----|---- ---- ---- ----|
B|-------------------|-------------------|-------------------|
G|-------------------|--1----------------|-------------------|
D|1-2----------------|-------4-----------|-----1-2--4--------|
A|-----4-2--0--------|2----2-------------|-------------------|
E|-------------------|-------------------|-------------------|



Verse

  E           Abm+5   F#m11       Asus2   E           Abm+5
e|0--- ---- --0- ----|0--- ---- --0- ----|0--- ---- --0- ----|
B|0-----------0------|0-----------0------|0-----------0------|
G|1-----------4------|2-----------2------|1-----------4------|
D|2-----------6------|4-----------2------|2-----------6------|
A|2-----------6------|4-----------0------|2-----------6------|
E|-------------------|-------------------|-------------------|
  Look around  your world pretty baby is it everything   you 


  F#m11       Bsus4   E           Abm+5   F#m11       Asus2
e|0--- ---- --0- ----|0--- ---- --0- ----|0--- ---- --0- ----|
B|0-----------0------|0-----------0------|0-----------0------|
G|2-----------4------|1-----------4------|2-----------2------|
D|4-----------4------|2-----------6------|4-----------2------|
A|4-----------2------|2-----------6------|4-----------0------|
E|-------------------|-------------------|-------------------|
  hoped it'd be        The wrong guy the wrong situation


  E           F#m11   Asus2     E
e|0--- ---- --0- ----|0--- ----|0-0- 0-0- 0-0- 0-0-|
B|0-----------0------|0--------|0-0--0-0--0-0--0-0-|
G|1-----------2------|2--------|1-1--1-1--1-1--1-2-|
D|2-----------4------|2--------|2-2--2-2--2-2--2-4-|
A|2-----------4------|0--------|2-2--2-2--2-2--2-4-|
E|-------------------|---------|-------------------|
   The right time  to roll   to me
                               |---- ---- ---- ----|
                               |-------------------|
                               |--1----------------|
                               |----------4--------|
                               |2------2-----------|
                               |-------------------|



  F#m11               E                   F#m11
e|--0- 0-0- 0-0- 0-0-|0-0- 0-0- 0-0- 0-0-|0-0- 0-0- 0-0- 0-0-|
B|--0--0-0--0-0--0-0-|0-0--0-0--0-0--0-0-|0-0--0-0--0-0--0-0-|
G|--2--2-2--2-2--2-2-|1-1--1-1--1-1--1-2-|2-2--2-2--2-2--2-2-|
D|--4--4-4--4-4--4-4-|2-2--2-2--2-2--2-4-|4-4--4-4--4-4--4-4-|
A|--4--4-4--4-4--4-4-|2-2--2-2--2-2--2-4-|4-4--4-4--4-4--4-4-|
E|-------------------|-------------------|-------------------|
            Roll  to  me                                  And
e|---- ---- ---- ----|---- ---- ---- ----|---- ---- ---- ----|
B|-------------------|-------------------|-------------------|
G|-------------------|--1----------------|-------------------|
D|1-2----------------|-------4-----------|-----1-2--4--------|
A|-----4-2--0--------|2----2-------------|-------------------|
E|-------------------|-------------------|-------------------|





Verse

  E           Abm+5   F#m11       Asus2   E           Abm+5
e|0--- ---- --0- ----|0--- ---- --0- ----|0--- ---- --0- ----|
B|0-----------0------|0-----------0------|0-----------0------|
G|1-----------4------|2-----------2------|1-----------4------|
D|2-----------6------|4-----------2------|2-----------6------|
A|2-----------6------|4-----------0------|2-----------6------|
E|-------------------|-------------------|-------------------|
  Look in...to  your heart pretty baby is it aching with some


  F#m11       Bsus4   E           Abm+5   F#m11       Asus2
e|0--- ---- --0- ----|0--- ---- --0- ----|0--- ---- --0- ----|
B|0-----------0------|0-----------0------|0-----------0------|
G|2-----------4------|1-----------4------|2-----------2------|
D|4-----------4------|2-----------6------|4-----------2------|
A|4-----------2------|2-----------6------|4-----------0------|
E|-------------------|-------------------|-------------------|
 nameless need.Is there something wrong and you can't put your


  E           F#m11   Asus2     E          Esus4 
e|0--- ---- --0- ----|0--- ---- ---- ----|0-0- 0-0- 0-0- 0-0-|
B|0-----------0------|0------------------|0-0--0-0--0-0--0-0-|
G|1-----------2------|2------------------|1-1--1-1--1-2--2-2-|
D|2-----------4------|2------------------|2-2--2-2--2-2--2-2-|
A|2-----------4------|0------------------|2-2--2-2--2-2--2-2-|
E|-------------------|-------------------|-------------------|
 finger on it  Right  then,      roll  to me     
                               |---- ---- ---- ----|
                               |-------------------|
                               |--1----------------|
                               |----------4--------|
                               |2------2-----------|
                               |-------------------|



                      E7                  Am
e|0-0- 0-0- 0-0- 0-0-|---- --0- ---- ----|---- --0- ---- ----|
B|0-0--0-0--0-0--0-0-|-----0------0------|-----1------1------|
G|1-1--1-1--1-1--1-1-|----1------------1-|2---2------------2-|
D|2-2--2-2--2-2--2-2-|0--0---------------|2-2----------------|
A|2-2--2-2--2-2--2-2-|2-2----------------|0------------------|
E|-------------------|0------------------|-------------------|
                And I don't think I have  ever   seen a   soul 
e|---- ---- ---- ----|
B|-------------------|
G|-----2----1--------|
D|-----4----2--------|
A|--2-------2--------|
E|-------------------|


  Abm+5               F#m11               Abm+5
e|---- --0- ---- ----|---- --0- ---- ----|---- --0- ---- ----|
B|-----0------0------|-----0------0------|-----0------0------|
G|4--4-------------4-|2---2------------2-|4--4-------------4-|
D|6-6----------------|4-4----------------|6-6----------------|
A|6------------------|4------------------|6------------------|
E|-------------------|-------------------|-------------------|
    so   in    dispair              So if  you   want to  talk

  Aadd9               F#m11               B         B7
e|---- --0- ---- ----|---- --0- ---- ----|---- --0- ---- --0-|
B|-----0------0------|-----0------0------|--0-------4-0------|
G|6--6-------------6-|2--2-------------2-|--4-------4--------|
D|7-7----------------|4-4----------------|--4-------4--------|
A|7------------------|4------------------|2------2--0------0-|
E|-------------------|-------------------|-------------------|
   the night through guess who will be there

  B6        B
e|---- --0- ---- --0-|
B|4-0-------4-0------|
G|4---------4--------|
D|4---------4--------|
A|-------------------|
E|4------4--2------2-|
                  So


  E           Abm+5   F#m11       Asus2   E           Abm+5
e|0--- ---- --0- ----|0--- ---- --0- ----|0--- ---- --0- ----|
B|0-----------0------|0-----------0------|0-----------0------|
G|1-----------4------|2-----------2------|1-----------4------|
D|2-----------6------|4-----------2------|2-----------6------|
A|2-----------6------|4-----------0------|2-----------6------|
E|-------------------|-------------------|-------------------|
  Don't try  to deny it pretty baby you've been down so long you can


  F#m11       Bsus4   E           Abm+5   F#m11       Asus2
e|0--- ---- --0- ----|0--- ---- --0- ----|0--- ---- --0- ----|
B|0-----------0------|0-----------0------|0-----------0------|
G|2-----------4------|1-----------4------|2-----------2------|
D|4-----------4------|2-----------6------|4-----------2------|
A|4-----------2------|2-----------6------|4-----------0------|
E|-------------------|-------------------|-------------------|
 hardly see When the engine'stalled and it won't stop rainin'it's the

  E           F#m11   Asus2
e|0--- ---- --0- ----|0-0- 0-0-|
B|0-----------0------|0-0--0-0-|
G|1-----------2------|2-2--2-2-|
D|2-----------4------|2-2--2-2-|
A|2-----------4------|0-0--0-0-|
E|-------------------|---------|
       Right time to  roll  to


  E
e|0-0- 0-0- 0-0- 0-0-|
B|0-0--0-0--0-0--0-0-|
G|1-1--1-1--1-2--2-1-|
D|2-2--2-2--2-2--2-2-|
A|2-2--2-2--2-2--2-2-|
E|-------------------|
  me
 |---- ---- ---- ----|
 |-------------------|
 |--1------------2-1-|
 |----------4--------|
 |2------2-----------|
 |-------------------|


  F#m11               E                   F#m11
e|0-0- 0-0- 0-0- 0-0-|0-0- 0-0- 0-0- 0-0-|0-0- 0-0- 0-0- 0-0-|
B|0-0--0-0--0-0--0-0-|0-0--0-0--0-0--0-0-|0-0--0-0--0-0--0-0-|
G|2-2--2-2--2-2--2-2-|1-1--1-1--1-1--1-1-|2-2--2-2--2-2--2-2-|
D|4-4--4-4--4-4--4-4-|2-2--2-2--2-2--2-2-|4-4--4-4--4-4--4-4-|
A|4-4--4-4--4-4--4-4-|2-2--2-2--2-2--2-2-|4-4--4-4--4-4--4-4-|
E|-------------------|-------------------|-------------------|
            Roll  to  me
e|---- ---- ---- ----|---- ---- ---- ----|---- ---- ---- ----|
B|-------------------|-------------------|-------------------|
G|-------------------|--1------------2-1-|-------------------|
D|4-2--1-------------|----------4--------|4-2--1-2--4--------|
A|-------2--4-2--0---|2------1-----------|-------------------|
E|-------------------|-------------------|-------------------|
                                                     Roll  to

  E
e|0-0- 0-0- 0-0- 0-0-|
B|0-0--0-0--0-0--0-0-|
G|1-1--1-1--1-1--1-1-|
D|2-2--2-2--2-2--2-2-|
A|2-2--2-2--2-2--2-2-|
E|-------------------|
  me
 |---- ---- ---- ----|
 |-------------------|
 |--1------------2-1-|
 |----------4--------|
 |2------2-----------|
 |-------------------|

 |---- ---- ---- ----|
 |--0------------4-0-|
 |-------1--2--------|
 |-------------------|
 |-------------------|


  F#m11               E
e|0-0- 0-0- 0-0- 0-0-|0-0- 0-0- 0-0- 0-0-|0-0- 0-0- 0-0- 0-0-|
B|0-0--0-0--0-0--0-0-|0-0--0-0--0-0--0-0-|0-0--0-0--0-0--0-0-|
G|2-2--2-2--2-2--2-2-|1-1--1-1--2-2--2-1-|1-1--1-1--1-1--1-1-|
D|4-4--4-4--4-4--4-4-|2-2--2-2--2-2--2-2-|2-2--2-2--2-2--2-2-|
A|4-4--4-4--4-4--4-4-|2-2--2-2--2-2--2-2-|2-2--2-2--2-2--2-2-|
E|-------------------|-------------------|-------------------|

e|---- ---- ---- ----|---- ---- ---- ----|---- ---- ---- ----|
B|-------------------|-----------------0-|-----2----0--------|
G|-------------------|--1------------1---|---------------2-1-|
D|4-2--1-------------|-------2--4--------|-------------------|
A|-------2--4-2--0---|2------------------|-------------------|
E|-------------------|-------------------|-------------------|

e|---- ---- ---- ----|---- ---- ---- --0-|---- ---- ---- ----|
B|-------------------|--0------------0---|-------------------|
G|2-1----1--2-1------|-------1--2--------|-----2----1--------|
D|-----4---------4---|-------------------|---------------4-2-|
A|-------------------|-------------------|-------------------|
E|-------------------|-------------------|-------------------|
                                                          And I


  E7                  Am
e|---- --0- ---- ----|---- --0- ---- ----|
B|-----0------0------|-----1------1------|
G|----1------------1-|2---2------------2-|
D|0--0---------------|2-2----------------|
A|2-2----------------|0------------------|
E|0------------------|-------------------|
 don't think I have   ever   seen a   soul
e|---- ---- ---- ----|
B|-------------------|
G|-------------------|
D|4------------------|
A|-------------------|
E|-------------------|

e|---- ---- ---- ----|
B|-------------------|
G|-------------------|
D|0------------------|
A|-------------------|
E|-------------------|


  Abm+5               F#m11               Abm+5
e|---- --0- ---- ----|---- --0- ---- ----|---- --0- ---- ----|
B|-----0------0------|-----0------0------|-----0------0------|
G|4--4-------------4-|2---2------------2-|4--4-------------4-|
D|6-6----------------|4-4----------------|6-6----------------|
A|6------------------|4------------------|6------------------|
E|-------------------|-------------------|-------------------|
     so   in  des..pair              So   If you want to talk

  Aadd9               F#m11               B         B7
e|---- --0- ---- ----|---- --0- ---- ----|---- --0- ---- --0-|
B|-----0------0------|-----0------0------|--0-------4-0------|
G|6--6-------------6-|2--2-------------2-|--4-------4--------|
D|7-7----------------|4-4----------------|--4-------4--------|
A|7------------------|4------------------|2------2--0------0-|
E|-------------------|-------------------|-------------------|
   the night through guess who will be there

  B6        B
e|---- --0- ---- --0-|
B|4-0-------4-0------|
G|4---------4--------|
D|4---------4--------|
A|-------------------|
E|4------4--2------2-|
                 So



  E           Abm+5   F#m11       Asus2   E           Abm+5
e|0--- x-x- x-0- ----|0--- x-x- x-0- ----|0--- x-x- x-0- ----|
B|0----x-x--x-0------|0----x-x--x-0------|0----x-x--x-0------|
G|1----x-x--x-4------|2----x-x--x-2------|1----x-x--x-4------|
D|2----x-x--x-6------|4----x-x--x-2------|2----x-x--x-6------|
A|2----x-x--x-6------|4----x-x--x-0------|2----x-x--x-6------|
E|-------------------|-------------------|-------------------|
  Look around   your  world pretty baby Is it everything you


  F#m11       E                   Abm+5   F#m11       Asus2
e|0--- x-x- x-0- 0-0-|0--- ---- --0- --0-|0--- ---- --0- 0-0-|
B|0----x-x--x-0--0-0-|0-----------0----0-|0-----------0--0-0-|
G|2----x-x--x-1--1-1-|1-----------4----4-|2-----------2--2-2-|
D|4----x-x--x-2--2-2-|2-----------6----6-|4-----------2--2-2-|
A|4----x-x--x-2--2-2-|2-----------6----6-|4-----------0--0-0-|
E|-------------------|-------------------|-------------------|
  hoped it'd be        The wrong guy the wrong situation


  E          F#m11 Asus2        E
e|0--- ---- --0- --0-|0-0- 0-0-|0--- ---- --0- --0-|
B|0-----------0----0-|0-0--0-0-|0-----------0----0-|
G|1-----------2----2-|2-2--2-2-|1-----------1----1-|
D|2-----------4----2-|2-2--2-2-|2-----------2----2-|
A|2-----------4----0-|0-0--0-0-|2-----------2----2-|
E|-------------------|---------|-------------------
    The right time to roll  to  me         The right
                               |---- ---- ---- ----|
                               |-------------------|
                               |--1----------------|
                               |-------2--4--------|
                               |2------------------|
                               |-------------------|


  F#m11               E                   F#m11     Asus2
e|0--- ---- 0-0- 0-0-|0--- ---- --0- --0-|0--- ---- 0-0- 0-0-|
B|0---------0-0--0-0-|0-----------0----0-|0---------0-0--0-0-|
G|2---------2-2--2-2-|1-----------1----1-|2---------2-2--2-2-|
D|4---------2-2--2-2-|2-----------2----2-|4---------2-2--2-2-|
A|4---------0-0--0-0-|2-----------2----2-|4---------0-0--0-0-|
E|-------------------|-------------------|-------------------|
  time  to  roll  to  me     The the right time  to roll  to
e|---- ---- ---- ----|---- ---- ---- ----|---- ---- ---- ----|
B|-------------------|-------------------|-------------------|
G|----------2-1------|--1----------------|----------2-1------|
D|-------2-------4-2-|-------2--4--------|-------2-------4---|
A|-------------------|2------------------|-------------------|
E|-------------------|-------------------|-------------------|



  F#m11 ЕЕЕЕЕЕЕЕЕЕЕЕЕЕЕЕЕЕЕЕЕЕЕЕЕЕЕЕЕЕЕЕЕ E         F#m11
e|0--- ---- ---- ----|---- ---- ---- ----|0-0- 0-0- 0-0- 0-0-|
B|0------------------|-------------------|0-0--0-0--0-0--0-0-|
G|2------------------|-------------------|1-1--1-1--2-2--2-2-|
D|4------------------|-------------------|2-2--2-2--4-4--4-4-|
A|4------------------|-------------------|2-2--2-2--4-4--4-4-|
E|-------------------|-------------------|-------------------|
  me                  uh.....................................
e|---- ---- ---- ----|---- ---- ---- ----|---- ---- ---- ----|
B|-------------------|-------------------|-------------------|
G|-------------------|-------------------|--1------------2-1-|
D|2------------------|-------------------|----------4--------|
A|-------------------|-------------------|2------2-----------|
E|-------------------|-------------------|-------------------|



  Asus2     E ЕЕЕЕЕЕЕЕЕЕЕЕЕЕЕЕЕЕЕЕЕЕЕЕЕЕЕЕЕЕЕЕЕЕЕЕЕ
e|0-0- 0--- 0--- ----|---- ---- ---- ----|---- ---- ---- ----| 
B|0-0--0----0--------|-------------------|-------------------|
G|2-2--2----1--------|-------------------|-------------------|
D|2-2--2----2--------|-------------------|-------------------|
A|0-0--0----2--------|-------------------|-------------------|
E|----------0--------|-------------------|-------------------|

e|---- ---- ---- ----|---- ---- ---- ----|---- ---- ---- ----|
B|-------------------|-------------------|-------------------|
G|-------------------|-------------------|-------------------|
D|4-2--1----2--------|-------------------|-------------------|
A|-------------------|-------------------|-------------------|
E|-------------------|-------------------|-------------------|
  ....


        B  Bend
        R  Release
        /  slide up
          slide down
        H  hammer-on
        P  pull-off
        ~  vibrato
        +  harmonic
        x  Mute note
        . - play note like a dot in standard notation
        ^ - ties two notes together


Текст, аккорды и табулатура для песни "Roll To Me", исполняет "Del Amitri".
Используемые в песне аккорды можно найти в разделе Как брать аккорды. Аккорды для шестиструнной гитары. Другие песни можно найти на нашем сайте, воспользовавшись алфавитным указателем вверху страницы.


 
Ошибка в тексте? Выделите ошибку и нажмите Ctrl+Enter