=================================================================================================

Song: Halls of Warship
Artist: Deicide
Album: Insineratehymn

Tabbed by Chris Rezendes ([email protected])
Date started tab: 5/3/02
Date finished tab: 5/3/02

Tuning: One step down

Notation Key
v: vibrato
t: tremolo bar
^: bend
.: palm mute
~: trill
p: pull-off
h: hammer-on
x: ghost note
/: slide up
: slide down

Comments: I'm not particularly fond of this song, but riff 2 kicks ass.  Plus, it's Deicide, so you know it doesn't suck.  If you spot any mistakes, feel free to suck my d**k.  Or you could e-mail me and I'll see if I can fix it.

=================================================================================================

Riff 1
e|---------------------------------------------------------------
B|---------------------------------------------------------------
G|---------------------------------------------------------------
D|--444-333-444-777-444-333-444-333------------------------------
A|----------------------------------555-666-555-666--------------
E|---------------------------------------------------------------

Riff 1b
e|---------------------------------------------------------------
B|---------------------------------------------------------------
G|---------------------------------------------------------------
D|---------------------------------------------------------------
A|----------------------------------555-666-555-666--------------
E|--222-111-222-555-222-111-222-111------------------------------

Fig. 1 (verse)
e|-------------------|-------------------------------------------
B|-------------------|-------------------------------------------
G|-------------------|-------------------------------------------
D|-------------------|-------------------------------------------
A|--7-3-4-7-4-3-2-3--|--7-3-4-7----------------------------------
E|--5-1-2-5-2-1-0-1--|--5-1-2-5-222222---------------------------
    . . . . . . . .     . . . . ......

Fig. 2
e|---------------------------------------------------------------
B|---------------------------------------------------------------
G|---------------------------------------------------------------
D|----------10---------9-----------------------------------------
A|-----------8---------7-----------------------------------------
E|--000-000----000-000-------------------------------------------

Riff 2
e|-------------------------------|--------------------------------
B|-------------------------------|--------------------------------
G|-------------------------------|--------------------------------
D|----------------------------6--|----------------------------3---
A|-------------------------------|--------------------------------
E|--0-0-0-0-0-0-000-000-0-4-5----|--0-0-0-0-0-0-000-000-0-1-2-----
    . . . . . . ... ... . . .       . . . . . . ... ... . . . 


Order of play

Riff 1 x2
Riff 1b x2
Fig. 1 x6
Riff 1 x2
Riff 1b x2
Fig. 2 x8
Riff 2 x4
Riff 1 x2
Riff 1b x2
Fig. 1 x6
Riff 1 x2
Riff 1b x2
Fig. 2 x8
Riff 2 x4


Текст, аккорды и табулатура для песни "Halls Of Warship", исполняет "Deicide".
Используемые в песне аккорды можно найти в разделе Как брать аккорды. Аккорды для шестиструнной гитары. Другие песни можно найти на нашем сайте, воспользовавшись алфавитным указателем вверху страницы.


 
Ошибка в тексте? Выделите ошибку и нажмите Ctrl+Enter