Deicide - Carnage In The Temple Of The Damned

Riff 1 x6
e|-----------------------------|
B|-----------------------------|
G|-----------------------------|
D|-----------------------------|
A|---------------333222222111--|
E|--222111444333---------------|

Gtr. 2 plays this the second time Gtr. 1 plays Riff 1
e|----------------------------|
B|----------------------------|
G|----------------------------|
D|----------------5-4----4-3--|
A|--4-3----6-5----3-2----2-1--|
E|--2-1----4-3----------------|

Riff 2 x4
e|---------------------------------|
B|---------------------------------|
G|---------------------------------|
D|---------------------------------|
A|--222222-111-666-555555-444-333--|
E|---------------------------------|

Riff 3 x4
e|----------------------------|
B|----------------------------|
G|-----------------------3~2--|
D|----------------333222------|
A|--000000-222333-------------|
E|----------------------------|

Riff 4 x4
e|---------------------------------------------------------------------|
B|---------------------------------------------------------------------|
G|---------------------------------------------------------------------|
D|------------------3333-2222------------------------------------------|
A|------22222-5p4p2-----------111111111111111h4p11h3p1111-----3-----5--|
E|--000---------------------------------------------------111-1-333-3--|

Riff 5 x8
e|-------------------------------|
B|-------------------------------|
G|-------------------------------|
D|--------------3-2-0-2-0--------|
A|--2-1---3-2-------------3-2----|
E|------0-----0---------------0--|
    . . . . . . . . . . . . . . 

Fig. 1 x1
e|-------------------------------|
B|-------------------------------|
G|-------------------------------|
D|--9---9------------9---9-------|
A|--7---7---5-9-9----7---7----5--|
E|--------0-3-7-7-0---------0-3--|

Fig. 2 x4
e|-----------------------------------------|
B|-----------------------------------------|
G|-----------------------------------------|
D|-----------------------------------------|
A|--9-9---5-8-8---3------------------------|
E|--7-7-0-3-6-6-0-1--000000000000000000000-|
                     .....................

Riff 6 x2 (under solo)
e|-----------------------------------------------|
B|-----------------------------------------------|
G|-----------------------------------------------|
D|-----------------------------------------------|
A|-----------------------------------------------|
E|--00000000000000000000000-333333333-222222222--|
    ....................... ......... .........

Repeat Fig. 2 x4
Repeat Riff 4 x4
Repeat Riff 5 x8
Repeat Fig. 1 x1
Repeat Fig. 2 x4
Repeat Riff 6 x2
Repeat Fig. 2 x4
Repeat Riff 4 x1


Текст, аккорды и табулатура для песни "Carnage In The Temple Of The Damned", исполняет "Deicide".
Используемые в песне аккорды можно найти в разделе Как брать аккорды. Аккорды для шестиструнной гитары. Другие песни можно найти на нашем сайте, воспользовавшись алфавитным указателем вверху страницы.


 
Ошибка в тексте? Выделите ошибку и нажмите Ctrl+Enter