DEICIDE - BIBLE BASHER
                     From the Album INSINERATEHYMN
                     Copyright 2000 - ROADRUNNER RECORDS
                     Version 3.0 - SEPTEMBER 2001

Original Tab by: [email protected]
Corrected by: death8699

For Questions, Comments, Newest Version, or Corrections contact
death8699 at: [email protected]

Check Out Death Warp, With More Transcriptions On It:
http://tiger.towson.edu/~dalvis1

Tablature Notation
------------------
..  - palm mute          /  - slide up to
  - slide down to      ~  - vibrato
h  - hammer on          b  - bend
p  - pull off            Suffixes for bend
                          ph - pinch harmonic
                           f - full bend    h - half bend
*  - see comment           r - release      t - tap bend
X  - percussion mute       ~ - vibrato bend
@  - slight palm mute     () - ghost note, sustained note

Tune Gtr to E Flat

BIBLE BASHER

Riff A                            6tx
|------------------------------------|
|------------------------------------|
|------------------------------------|Gtrs
|-88888888888888889999---------------|I&II
|----------------------88889999------|
|-------------------------------7777-|


Riff B                                     5tx
|---------------------------------------------|
|---------------------------------------------|
|---------------------------------------------|Gtrs
|-3---2---3---4---3---2---3---4---------------|I&II
|-1---0---1---2---1---0---1---2---5---4---5---|
|---0---0---0---0---0---0---0---0-3-0-2-0-3-0-|
    .   .   .   .   .   .   .   . . . . . . .


Riff C                       6tx
|-------------------------------|
|-------------------------------|
|-------------------------------|Gtr
|-------------------------------| I
|-89/8---8---7---6---4---7---6-|
|-67/6-0-6-0-5-0-4-0-2-0-5-0-4-|
|       .   .   .   .   .   .
|
|                          (3tx)
|-------------------------------|
|-------------------------------|
|-------------------------------|Gtr
|-------------------------------| II
|-------------------------------|
|-6-7-6-0-6-0-5-0-4-0-2-0-5-0-4-|
  . . . . . . . . . . . . . . .


Riff C.1 (Guitar 2 only)
|-------------------------|
|-------------------------|
|-------------------------| Guitar 2
|-8-9-8--8--7--6--4--7--6 | play this
|-------------------------| last 3tx
|-------0--0--0--0--0--0--| of verse
        .  .  .  .  .  .


Riff D                                  2tx
|------------------------------------------|
|------------------------------------------|
|---------------------------89--------78-|Gtr
|-------89-------87-------67--------56-| I
|-------67-------65----------------------|
|-7-6-5-----7-6-5-----7-6-5------7-6-5-----|
| . . .     . . .     . . .      . . .
|
|
|-----------------------------------------|
|-----------------------------------------|
|-----------------------------------------|Gtr
|---------------------------6h7-------5h6-| II
|-------6h7-------5h6---------------------|
|-7-6-5-----7-6-5-----7-6-5-----7-6-5-----|
  . . .     . . .     . . .     . . .


Riff A 6tx
Riff B 5tx
Riff C W/C.1 6tx
Riff D 2tx
Riff A 5tx


Riff A.1
|----------------------------------|
|----------------------------------|
|----------------------------------|Gtrs
|-88888888888888888-9--------------|I&II
|-----------------------8----9-----|
|---------------------0----0---0-7-|
                      .   .    .


Check Out Death Warp, With More Transcriptions On It:
http://tiger.towson.edu/~dalvis1


Текст, аккорды и табулатура для песни "Bible Basher", исполняет "Deicide".
Используемые в песне аккорды можно найти в разделе Как брать аккорды. Аккорды для шестиструнной гитары. Другие песни можно найти на нашем сайте, воспользовавшись алфавитным указателем вверху страницы.


 
Ошибка в тексте? Выделите ошибку и нажмите Ctrl+Enter