-------------------------------------------------------------------------------
			     Root-Deftones
-------------------------------------------------------------------------------
Tabbed by: misckreant 
Email:[email protected]

Tuning:ebgdae
Intro/verses(palm mute verses except for last three)
e|--------------------------------------------------------------------------
B|--------------------------------------------------------------------------
G|-----9-9---------7-7------------------------------------------------------
D|--------9-9-10-10---10-10-9-9---------------------------------------------
A|-7-7-------------------------10-10----------------------------------------
E|-------------------------------------------------------------------------|
Chorus
e|----  --------------------------------------------------------------------
B|----  --------------------------------------------------------------------
G|----  --------------------------------------------------------------------
D|-2-2  2-2-9-9-4-4-5-5-7-7-5-5-4-4-----------------------------------------
A|-2-2  2-2-7-7-2-2-3-3-5-5-3-3-2-2-5-5-------------------------------------
E|-0-0  0-0-------------------------3-3-------------------------------------
After chorus 
e|--------------------------------------------------------------------------
B|--------------------------------------------------------------------------
G|--------------------------------------------------------------------------
D|-----9-9-9-9--------------------------------------------------------------
A|-0---8-8-8-8--------------------------------------------------------------
E|-0---7-7-7-7--------------------------------------------------------------
Interlude
e|--------------------------------------------0-----------------------------
B|--------------------------------------------0-----------------------------
G|--------------------------------------------0-----------------------------
D|--------------------------------------------0-----------------------------
A|-9/8---8/7---7/6---6/5-5/4-4--------4-4-4-4-------------------------------
E|-7/6-0-6/5-0-5/4-0-4/3-3/2-2--------2-2-2-2-------------------------------
                                      . . . .
e|--------------------------------------------------------------------------
B|-12------12-6-5-----------------------------------------------------------
G|-----------------12-6-5---5--6--5-----------------------------------------
D|------------------------------------------------2-2-2---------------------
A|------------------------------------------------2-0-0---------------------
E|------------------------------------------------0-0-0---------------------
Outro
e|--------------------------------------------------------------------------
B|--------------------------------------------------------------------------
G|------7---9---10--9--7----------------------------------------------------
D|--9---------------------------------------------7-7-7---------------------
A|--------------------------------------------------------------------------
E|--------------------------------------------------------------------------
   [fast tremolo picking]
e|------------------------------3-------------------------------------------
B|------------------------------0-------------------------------------------
G|------------------------------0-------------------------------------------
D|-2-2-2-------0-0--------------0-------------------------------------------
A|-2-2-2-------0-0--------------2-------------------------------------------
E|-2-2-2-------0-0--------------3-------------------------------------------

/   slide down
.   palm mute 

This is my first tab I love this song...look for my band soon to be signed by
trustkill ...miskreant


Текст, аккорды и табулатура для песни "Root", исполняет "Deftones".
Используемые в песне аккорды можно найти в разделе Как брать аккорды. Аккорды для шестиструнной гитары. Другие песни можно найти на нашем сайте, воспользовавшись алфавитным указателем вверху страницы.


Слушать онлайн Root


DeftonesRoot на Яндекс.Музыке


 
Ошибка в тексте? Выделите ошибку и нажмите Ctrl+Enter