Passenger-Deftones
White Pony

Drop C:

C G C F A D

( ) = harmonics

Fig. 1

d-------------------------------------------
a-------------------------------------------
f-------------------------------------------
c-------------7---7-7-------------5---5-5---
g-------------------------------------------
c-4--4-4--4-4---4-----4--4-4--4-4---4-------

d-------------------------------------------
a-------------------------------------------
f-------------------------------------------
c-------------4---4-4-------------4---4-4---
g-------------------------------------------
c-4--4-4--4-4---4-----4--4-4--4-4---4-------

verse 1: fig. 1

verse 2

d-------------------------------------------
a-------------------------------------------
f---------------------------------(5)-------
c-------------(5)---------------------------
g-------(4)-----------------(4)-------------
c-(4)-----------------(4)-------------------

pre chorus:   ..drive faster !.....

d-----------------------------------------------------------------
a-----------------------------------------------------------------
f-9-9-9-9-9-9-9-9-9-9-9-9-9-9-9-910--9-910--9-910--9-9--910-9-6-6-
c-x-x-x-x-x-x-x-x-x-x-x-x-x-x-x-x-x--x-x-x--x-x-x--x-x--x-x-x-5-5-
g-7-7-7-7-7-7-7-7-7-7-7-7-7-7-7-7-8--7-7-8--7-7-8--7-7--7-8-7-5-5-
c-0-0-0-0-0-0-0-0-0-0-0-0-0-0-0-0-0--0-0-0--0-0-0--0-0--0-0-0-5-5-

Chorus: Fig.1 x4

Interlude:

d-----------------------------------------------------------------
a-----------------------------------------------------------------
f-6-6-6-6---------------------------------------------------------
c-4-4-4-4---7-7-7-7---5-5-5-5---4-4-4-4-----4-4-4-(5)--4-4-4-(4)--
g-4-4-4-4---4-4-4-4---4-4-4-4---4-4-4-4-----4-4-4------4-4-4------
c-4-4-4-4---4-4-4-4---4-4-4-4---4-4-4-4-3---4-4-4------4-4-4------

d-----------------------------------------------------------------
a-----------------------------------------------------------------
f----------------------------------------------------(5)----------
c-4-4-4-3---4-4-4-4-----4-4-4-(5)--4-4-4-(4)---4-4-4-(5)4-4-4-4---
g-4-4-4-3---4-4-4-4-----4-4-4-(5)--4-4-4-(4)---4-4-4----4-4-4-4---
c-4-4-4-3---4-4-4-4-3---4-4-4------4-4-4-------4-4-4----4-4-4-4-3-

repeat verse 2

weird harmonics: pick f string behind nut

Piano Outro:

d------21-22--21--------21-22--21--------21-22--21-------21-22--21
a-19---------------22---------------19--------------22------------
f-----------------------------------------------------------------
c-----------------------------------------------------------------
g-----------------------------------------------------------------
c-----------------------------------------------------------------

That’s all

trevor jones
[email protected]


Текст, аккорды и табулатура для песни "Passenger", исполняет "Deftones".
Используемые в песне аккорды можно найти в разделе Как брать аккорды. Аккорды для шестиструнной гитары. Другие песни можно найти на нашем сайте, воспользовавшись алфавитным указателем вверху страницы.


Слушать онлайн Passenger


DeftonesPassenger на Яндекс.Музыке


 
Ошибка в тексте? Выделите ошибку и нажмите Ctrl+Enter