Minerva-Deftones
Deftones

Drop Db:
Db Ab Db Gb Bb Eb


Intro: Fig. 1

e--------0--0--0--0--0--0--0--0--0--0--0--0--0--0-
b-------13-13-13-13-13-13-13-13-13-13-13-13-13-13-
g-14-14-14-14-14-14-14-14-14-14-14-14-14-14-14-14-
d-12-12-------------------------------------------
a--0----------------------------------------------
d-------------------------------------------------

e-------------------------------------------------
b----------13----------13-------13-13----13----13-
g-14-14-14-14-14-14-14-14-14-14-14-14-14-14-14-14-
d-12-12-12-12-12-12-12-12-12-12-12-12-12-12-12-12-
a-------------------------------------------------
d-------------------------------------------------

e--------------0--0--0--0--0--0--0--0--0--0--0--0-
b-------13-13-13-13-13-13-13-13-13-13-13-13-13-13-
g-14-14-14-14-14-14-14-14-------------------------
d-12-12-12-12-------------------------------------
a--0----------------------------------------------
d-------------------------------------------------


e--0----------------------------------------------
b-13-13-------------------------------13-13-13-13-
g----14-14-14-14-14-14-14-14-14-14-14-14-14-14-14-
d-------12-12-12-12-12-12-12-12-12-12-12-12-12-12-
a--------------------0--0-----0--0--0--0--0--0--0-
d-------------------------------------------------

Riff A: x2

e-------------------------------------------------
b-------------------------------------------------
g-12---12---12-14-14-14-14-14-14-14-14-14-14-14---
d--x----x----x--x--x--x--x--x--x--x--x--x--x--x---
a-10---10---10-12-12-12-12-12-12-12-12-12-12-12---
d--0----0----0--0--0--0--0--0--0--0--0--0--0--0---

e-------------------------------------------------
b-------------------------------------------------
g-11-11-1111-11-11-11111111-11-11-11-11-11-11--11-
d--x--x--x-x--x--x--x-x-x-x--x--x--x--x--x--x---x-
a--9--9--9-9--9--9--9-9-9-9--9--9--9--9--9--9---9-
d--0--0--0-0--0--0--0-0-0-0--0--0--0--0--0--0---0-

Verses: Riff A x4, with

Riff A1

e-------------------------------------------------
b-10----10----10----10----10----10----10----10----
g----11----11----11----11----11----11----11----11- pause
d-------------------------------------------------
a-------------------------------------------------
d-------------------------------------------------

1st Chorus:

e-----------------------------------------------------------------
b-----------------------------------------------------------------
g-----------------------------------------------------------------
d-7-7-7-7-7-7-7-7-7-7-7-7-7-7-7-7---------------------------------
a-5-5-5-5-5-5-5-5-5-5-5-5-5-5-5-5-2-2-2-2-2-2-2-2-2-2-2-2-2-2--2--
d-5-5-5-5-5-5-5-5-5-5-5-5-5-5-5-5-2-2-2-2-2-2-2-2-2-2-2-2-2-2--2--

Interlude:

e--0--0--0--0--0--0--0--0--0--0--0--0--0--0--0--0--
b-13-13-13-13-13-13-13-13-13-13-13-13-13-13-13-13--
g-14-14-14-14-14-14-14-14-14-14-14-14-14-14-14-14--
d--0--0--0--0--0--0--0--0--0--0--0--0--0--0--0--0--
a--------------------------------------------------
d--------------------------------------------------

then Riff A x2

2nd Chorus:

e-----------------------------------------------------------------
b-----------------------------------------------------------------
g-----------------------------------------------------------------
d-7-7-7-7-7-7-7-7-7-7-7-7-7-7-7-7---------------------------------
a-5-5-5-5-5-5-5-5-5-5-5-5-5-5-5-5-2-2-2-2-2-2-2-2-2-2-2-2-2-2-2-2-
d-5-5-5-5-5-5-5-5-5-5-5-5-5-5-5-5-2-2-2-2-2-2-2-2-2-2-2-2-2-2-2-2-

e-----------------------------------------------------------------
b-----------------------------------------------------------------
g-----------------------------------------------------------------
d-----------------------------------------------------------------
a-0-0-0-0-0-0-0-0-0-0-0-0-0-0-0-1-0-0-0-0-0-0-0-0-0-0-0-0-0-0--0--
d-0-0-0-0-0-0-0-0-0-0-0-0-0-0-0-1-0-0-0-0-0-0-0-0-0-0-0-0-0-0--0--

e-----------------------------------------------------------------
b-----------------------------------------------------------------
g-----------------------------------------------------------------
d-7-7-7-7-7-7-7-7-7-7-7-7-7-7-7-7---------------------------------
a-5-5-5-5-5-5-5-5-5-5-5-5-5-5-5-5-2-2-2-2-2-2-2-2-2-2-2-2-2-2--2--
d-5-5-5-5-5-5-5-5-5-5-5-5-5-5-5-5-2-2-2-2-2-2-2-2-2-2-2-2-2-2--2--

Interlude:

Fig. 1

Outro Chorus: x3

e-----------------------------------------------------------------
b-----------------------------------------------------------------
g-----------------------------------------------------------------
d-7-7-7-7-7-7-7-7-7-7-7-7-7-7-7-7---------------------------------
a-5-5-5-5-5-5-5-5-5-5-5-5-5-5-5-5-2-2-2-2-2-2-2-2-2-2-2-2-2-2-2-2-
d-5-5-5-5-5-5-5-5-5-5-5-5-5-5-5-5-2-2-2-2-2-2-2-2-2-2-2-2-2-2-2-2-

e-----------------------------------------------------------------
b-----------------------------------------------------------------
g-----------------------------------------------------------------
d-----------------------------------------------------------------
a-0-0-0-0-0-0-0-0-0-0-0-0-0-0-0-1-0-0-0-0-0-0-0-0-0-0-0-0-0-0--0--
d-0-0-0-0-0-0-0-0-0-0-0-0-0-0-0-1-0-0-0-0-0-0-0-0-0-0-0-0-0-0--0--


then,

e-----------------------------------------------------------------
b-----------------------------------------------------------------
g-----------------------------------------------------------------
d-7-7-7-7-7-7-7-7-7-7-7-7-7-7-7-7---------------------------------
a-5-5-5-5-5-5-5-5-5-5-5-5-5-5-5-5-2-2-2-2-2-2-2-2-2-2-2-2-2-2--2--
d-5-5-5-5-5-5-5-5-5-5-5-5-5-5-5-5-2-2-2-2-2-2-2-2-2-2-2-2-2-2--2--

Outro: repeat and fade

e--------0--0--0--0--0--0--0--0--0--0--0--0--0----
b-------13-13-13-13-13-13-13-13-13-13-13-13-13----
g-14-14-14-14-14-14-14-14-14-14-14-14-14-14-14-14-
d-12-12----------------------------------------12-
a--0----------------------------------------------
d-------------------------------------------------

e--------------0--0--0--0--0--0--0--0--0--0--0----
b-------13----13-13-13-13-13-13-13-13-13-13-13-13-
g-14-14-14-14-14-14-14-14-14-14-14-14-14-14-14-14-
d-12-12-12-12----------------------------------12-
a-------------------------------------------------
d-------------------------------------------------

e--------------0--0--0--0--0--0--0--0--0--0--0--0-
b-------13-13-13-13-13-13-13-13-13-13-13-13-13-13-
g-14-14-14-14-14-14-14-14-14-14-14-14----------14-
d-12-12-12-12-------------------------------------
a-------------------------------------------------
d-------------------------------------------------

e-----0--0--0--0--0--0--0--0--0--0--0--0--0--0----
b-13-13-13-13-13-13-13-13-13-13-13-13-13-13-13-13-
g-14-14-14-14-14-14-14-14-14-14-14-14-14-14-14-14-
d-12-12-12-12----------------------------------12-
a-------------------------------------------------
d-------------------------------------------------


ok, so why do we need a 7 string for this song ????
i know steph plays one now in G#/Ab ... but it is not needed for this song

trevor jones
[email protected]


Текст, аккорды и табулатура для песни "Minerva", исполняет "Deftones".
Используемые в песне аккорды можно найти в разделе Как брать аккорды. Аккорды для шестиструнной гитары. Другие песни можно найти на нашем сайте, воспользовавшись алфавитным указателем вверху страницы.


Слушать онлайн Minerva


DeftonesMinerva на Яндекс.Музыке


 
Ошибка в тексте? Выделите ошибку и нажмите Ctrl+Enter