Author/Artist: Deftones
          Title: Knife Party
          Album: White Pony
          Transcribed by: Mikey C
          Email: [email protected]
          
          This is my first tab ever. No one has bothered to tab this 
          awesome song so I figure I might as well do it myself. 
          E-mail me with any comments on it. 
          Tuning:
          Drop D standard (low to high) DADGBe
          
          e-|----------------------------------------------------------------------------
          B-|----------------------------------------------------------------------------
          G-|8-888-8-888888-8-888-8-88888------------------------------------------------
          D-|8-888-8-888888-8-888-8-88888-7-777-7-777777/10--10-10-10-10-9-999-----------
          A-|6-666-6-666666-6-666-6-66666-5-555-5-555555/8---8--8--8--8--7-777-----------
          D-|-----------------------------5-555-5-555555/8---8--8--8--8--7-777-----------
             Intro Riff (Clean, reverb) 2x, 
             Then same riff with big distortion 2x       
          
          e-|----------------------------------------------------------------------------
          B-|----------------------------------------------------------------------------
          G-|8-888-8-888888-8-888-8-88888------------------------------------------------
          D-|8-888-8-888888-8-888-8-88888-7-777-7-777777/10--10-10-10-10-9-999-----------
          A-|6-666-6-666666-6-666-6-66666-5-555-5-555555/8---8--8--8--8--7-777-----------
          D-|-----------------------------5-555-5-555555/8---8--8--8--8--7-777-----------
            Verse Riff (Clean, reverb) 2x, then again with big distortion 4x            
           
          e-|-------------------------------|--------------------------------------------
          B-|-------------------------------|--------------------------------------------
          G-|------------------------------8|88-7-7777777777-----------------------------
          D-|6-666-6-666666-6-666-6-666666-8|88-7-7777777777-----------------------------
          A-|6-666-6-666666-6-666-6-666666-6|66-5-5555555555-----------------------------
          D-|6-666-6-666666-6-666-6-666666--|--------------------------------------------
             Chorus 3x            stop here^ 3rd time                                 
          
          e-|----------------------------------------------------------------------------
          B-|----------------------------------------------------------------------------
          G-|8-888-8-888888-8-888-8-88888------------------------------------------------
          D-|8-888-8-888888-8-888-8-88888-7-777-7-777777/10--10-10-10-10-9-999-----------
          A-|6-666-6-666666-6-666-6-66666-5-555-5-555555/8---8--8--8--8--7-777-----------
          D-|-----------------------------5-555-5-555555/8---8--8--8--8--7-777-----------
            Back to verse with distortion 4x
          
          e-|-------------------------------|--------------------------------------------
          B-|-------------------------------|--------------------------------------------
          G-|------------------------------8|88-7-7777777777-----------------------------
          D-|6-666-6-666666-6-666-6-666666-8|88-7-7777777777-----------------------------
          A-|6-666-6-666666-6-666-6-666666-6|66-5-5555555555-----------------------------
          D-|6-666-6-666666-6-666-6-666666--|--------------------------------------------
             Chorus 3x            stop here^ 3rd time                                 
          
          e-|----------------------------------------------------------------------------
          B-|----------------------------------------------------------------------------
          G-|-------------------8--------------------------------------------------------
          D-|-7-----------------8--------------------------------------------------------
          A-|-5-----------------6--------------------------------------------------------
          D-|-5--------------------------------------------------------------------------
           Bridge  (Mid-distortion, reverb)- do this from 2:51 to 4:10
          
          Back to Chorus                                                                       
          
          e-|-------------------------------|--------------------------------------------
          B-|-------------------------------|--------------------------------------------
          G-|------------------------------8|88-7-7777777777-----------------------------
          D-|6-666-6-666666-6-666-6-666666-8|88-7-7777777777-----------------------------
          A-|6-666-6-666666-6-666-6-666666-6|66-5-5555555555-----------------------------
          D-|6-666-6-666666-6-666-6-666666--|--------------------------------------------
             Chorus 3x            stop here^ 3rd time                                 
          
          That's it! A pretty easy song, nothing special. Just e-mail me with any comments 
          that you have.
          [email protected]


Текст, аккорды и табулатура для песни "Knife Party", исполняет "Deftones".
Используемые в песне аккорды можно найти в разделе Как брать аккорды. Аккорды для шестиструнной гитары. Другие песни можно найти на нашем сайте, воспользовавшись алфавитным указателем вверху страницы.


Слушать онлайн Knife Party


DeftonesKnife Party на Яндекс.Музыке


 
Ошибка в тексте? Выделите ошибку и нажмите Ctrl+Enter