Deftones 
hexagram
Tuning: BEADFB 
(u can slighty mes with the tuning a bit to make it sound perfect)   

This is tab is practically correct 
i think its the closest your gonna get to the orig
by using a six string (and not massivly detune'in it). 
you can play this along with the cd and it sounds right.
U can do the strum pattern ur self  Enjoy.

intro
(clearish)

B-2-------------
F-2-----2-------
D-------3-------
A-4--1--3-------
E-4--1--1-------
B-2-------------

B-2--------2----
F-2--------2----
D-------3--4----
A-4--1--3--4----
E-4--1--1--2----
B-2-------------

Verse same as intro
(distorted)

B-2-------------
F-2-----2-------
D-------3-------  x3
A-4--1--3-------
E-4--1--1-------
B-2-------------

B-2--------2-22-
F-2--------2-22-
D-------3--4-44-
A-4--1--3--4-44-
E-4--1--1--2-22-
B-2-------------

Chorus

B------------------
F------------------
D------------------
A------------------
E--6-5-6--66-5-6---
B--6-5-6--66-5-6---

B------------------
F------------------
D-2-1-4------------
A-2-1-4-2----------
E-------2----------
B------------------

B------------------
F------------------
D------------------
A------------------
E--6-5-6--66-5-6---
B--6-5-6--66-5-6---

B------------------
F------------------
D------------------
A-7-6-9------------
E-7-6-9-7----------
B-------7----------

B-------------------------
F----------------------2~-
D----------------------3~-
A----------------------3~-
E--6-5-6--66-5-6---66--1~-
B--6-5-6--66-5-6---66-----

tAbBED bY yOuNgY 2003


Текст, аккорды и табулатура для песни "Hexagram", исполняет "Deftones".
Используемые в песне аккорды можно найти в разделе Как брать аккорды. Аккорды для шестиструнной гитары. Другие песни можно найти на нашем сайте, воспользовавшись алфавитным указателем вверху страницы.


Слушать онлайн Hexagram


DeftonesHexagram на Яндекс.Музыке


 
Ошибка в тексте? Выделите ошибку и нажмите Ctrl+Enter