Feiticeira-Deftones
White Pony

Drop C
C G C F A D

intro changes from 4/4 to 3/4

Fig. 1

d-7-------7--------------------------------7------------------
a-x-7-7-7-x-7-7-7-7-7-7-77-----------6-7-7-x-7-7-77-----------
f-4-------4-x-x-x-x-x-x-xx-6-7-6-7---3-x-x-4-x-x-xx-6-7-6-7---
c---4-4-4---4-4-4-4-4-4-44---0---0---3-4-4---4-4-44---0---0---
g--------------------------4-0-4-0-0----------------4-0-4-0---
c--------------------------4-0-4-0-0----------------4-0-4-0---

d---------7------------------------7--------------------------
a---6-7-7-x-7-7-77-----------6-7-7-x-7-7-77-------------------
f---3-x-x-4-x-x-xx-6-7-6-7---3-x-x-4-x-x-xx-6-7-6-7-----------
c---3-4-4---4-4-44---0---0---3-4-4---4-4-44---0---0-----------
g-0----------------4-0-4-0-0----------------4-0-4-0-----------
c-0----------------4-0-4-0-0----------------4-0-4-0-----------

d---------7------------------------7--------------------------
a---6-7-7-x-7-7-77-----------6-7-7-x-7-7-77-------------------
f---3-x-x-4-x-x-xx-6-7-6-7---3-x-x-4-x-x-xx-6-7-6-7-----------
c---3-4-4---4-4-44---0---0---3-4-4---4-4-44---0---0-----------
g-0----------------4-0-4-0-0----------------4-0-4-0-----------
c-0----------------4-0-4-0-0----------------4-0-4-0-----------

gtr 2. doubled

d-------------------------------------------------------------
a-------------------------------------------------------------
f-------------------------------------------------------------
c----------------------------------------88-8---4-------------
g----------------------------------------88-8-0-4-0-----------
c----------------------------------------88-8-0-4-0-----------

Verse 1 ...Fuck, i’m drunk...

Fig 2.

d-------------------------------------------------------------
a-------------------------------------------------------------
f-------------------------------------------------------------
c-0-11-11-11-11-11-11-11-11-11-11-11--------------------------
g-0-11-11-11-11-11-11-11-11-11-11-11-8-0-4-0------------------
c-0-11-11-11-11-11-11-11-11-11-11-11-8-0-4-0------------------

Bridge:

d-------------------------------------------------------------
a-------------------------------------------------------------
f-------------------------------------------------------------
c----------------------------------------------1010-----------
g-8---8b-8----8b-8---8br-8----8b-8--8b-8----8b-1010-10-0-4-0--
c----------------------------------------------1010-10-0-4-0--

...soon i’ll let you go....

d-------------------------------------------------------------
a-10-10-10-10-10-10-10-10-10-15-15-15-15-15-15-19-19-19-19-19-
f-x--x--x--x--x--x--x--x--x--x--x--x--x--x--x--x--x--x--x--x--
c-7--7--7--7--7--7--7--7--7--12-12-12-12-12-12-16-16-16-16-16-
g-------------------------------------------------------------
c-------------------------------------------------------------

Bridge:

Fig 3.

d-------------------------------------------------------------
a-------------------------------------------------------------
f-10-10-10-10-10-10-10-10-10-10-10-10-10b-10------------------
c-------------------------------------------------------------
g--8--8--8--8--8--8--8--8--8--8--8--8--8b--8------------------
c-------------------------------------------------------------

Outro:

d-0-0-0-0-0-0-0-0-0-0-0-0-0-0---0-0-0-0-0-0-0-0-0-0-0-0-0-0-0-
a-0-0-0-0-0-0-0-0-0-0-0-0-0-0---0-0-0-0-0-0-0-0-0-0-0-0-0-0-0-
f1010101010101010101010101010---6-6-6-6-6-6-6-6-6-6-6-6-6-6-6-
c1010101010101010101010101010---6-6-6-6-6-6-6-6-6-6-6-6-6-6-6-
g-8-8-8-8-8-8-8-8-8-8-8-8-8-8---4-4-4-4-4-4-4-4-4-4-4-4-4-4-4-
c-------------------------------------------------------------

let ring

d-------------------------------------------------------------
a-------------------------------------------------------------
f-------------------------------------------------------------
c-3-----------------------------------------------------------
g-5-----------------------------------------------------------
c-0-----------------------------------------------------------

That’s all

trevor jones
[email protected]


Текст, аккорды и табулатура для песни "Feiticeira", исполняет "Deftones".
Используемые в песне аккорды можно найти в разделе Как брать аккорды. Аккорды для шестиструнной гитары. Другие песни можно найти на нашем сайте, воспользовавшись алфавитным указателем вверху страницы.


Слушать онлайн Feiticeira


DeftonesFeiticeira на Яндекс.Музыке


 
Ошибка в тексте? Выделите ошибку и нажмите Ctrl+Enter