elite by deftones

of the whit pony album.

tunning: drop c 1 1/2 steps

Riff 1 (play this 4 times)

d-----------------------------------------------------------
a-----------------------------------------------------------
f-----------------------------------------------------------
c-0-2-0-2-3-2-0-2-0-2-0-2-3-2-0-2-0-2-0-2-3-2-0-2-0-3-3-0-8-
g-0-2-0-2-3-2-0-2-0-2-0-2-3-2-0-2-0-2-0-2-3-2-0-2-0-3-3-0-8-
c-0-2-0-2-3-2-0-2-0-2-0-2-3-2-0-2-0-2-0-2-3-2-0-2-0-3-3-0-8-

then play this bit here

d-----------------------------------------------------------
a-----------------------------------------------------------
f---------4------------4------------4------------4----------
c-0-2-0-2-3----0-2-0-2-3----0-2-0-2-3----0-2-0-2-3----------
g-0-2-0-2-3----0-2-0-2-3----0-2-0-2-3----0-2-0-2-3----------
c-0-2-0-2-3----0-2-0-2-3----0-2-0-2-3----0-2-0-2-3----------

heres the first verse(play this 4 times)

d-----------------------------------------------------------
a-----------------------------------------------------------
f-----------------------------------------------------------
c-----------------------------------------------------------
g---------3---------------3---------------3-----------------
c-0-2-0-2---2-0-2-0-2-0-2---2-0-2-0-2-0-2---2-0-2-0-3-3-0-8-

play this(its just riff 1 but play it you play it twice)

d-----------------------------------------------------------
a-----------------------------------------------------------
f-----------------------------------------------------------
c-0-2-0-2-3-2-0-2-0-2-0-2-3-2-0-2-0-2-0-2-3-2-0-2-0-3-3-0-8-
g-0-2-0-2-3-2-0-2-0-2-0-2-3-2-0-2-0-2-0-2-3-2-0-2-0-3-3-0-8-
c-0-2-0-2-3-2-0-2-0-2-0-2-3-2-0-2-0-2-0-2-3-2-0-2-0-3-3-0-8-

Riff 2(play this 4 times)

d-----------------------------------------------------------
a-----------------------------------------------------------
f--------------------------------4----------4---------------
c-5--5--5--5---5-5-5-5---0-2-0-2-3--0-2-0-2-3---------------
g-5--5--5--5---5-5-5-5---0-2-0-2-3--0-2-0-2-3---------------
c-5--5--5--5---5-5-5-5---0-2-0-2-3--0-2-0-2-3---------------

then play this lil bit here(lets call it a fill)

d-----------------------------------------------------------
a-----------------------------------------------------------
f---------4-----------4-------------------------------------
c-0-2-0-2-3---0-2-0-2-3-------------------------------------
g-0-2-0-2-3---0-2-0-2-3-------------------------------------
c-0-2-0-2-3---0-2-0-2-3-------------------------------------

verse 2(play 4 times)

d-----------------------------------------------------------
a-----------------------------------------------------------
f-----------------------------------------------------------
c-----------------------------------------------------------
g---------3---------------3---------------3-----------------
c-0-2-0-2---2-0-2-0-2-0-2---2-0-2-0-2-0-2---2-0-2-0-3-3-0-8-

then do this(let rig a bit)

d-----------------------------------------------------------
a-----------------------------------------------------------
f-----------------------------------------------------------
c-2---------------------------------------------------------
g-2---------------------------------------------------------
c-2---------------------------------------------------------

Back in to Riff 1(play 4 times)

d-----------------------------------------------------------
a-----------------------------------------------------------
f-----------------------------------------------------------
c-0-2-0-2-3-2-0-2-0-2-0-2-3-2-0-2-0-2-0-2-3-2-0-2-0-3-3-0-8-
g-0-2-0-2-3-2-0-2-0-2-0-2-3-2-0-2-0-2-0-2-3-2-0-2-0-3-3-0-8-
c-0-2-0-2-3-2-0-2-0-2-0-2-3-2-0-2-0-2-0-2-3-2-0-2-0-3-3-0-8-

Riff 2 again(play it four times)

d-----------------------------------------------------------
a-----------------------------------------------------------
f--------------------------------4-----------4--------------
c-5--5--5--5---5-5-5-5---0-2-0-2-3---0-2-0-2-3--------------
g-5--5--5--5---5-5-5-5---0-2-0-2-3---0-2-0-2-3--------------
c-5--5--5--5---5-5-5-5---0-2-0-2-3---0-2-0-2-3--------------

and the fill follows

d-----------------------------------------------------------
a-----------------------------------------------------------
f---------4-----------4-------------------------------------
c-0-2-0-2-3---0-2-0-2-3-------------------------------------
g-0-2-0-2-3---0-2-0-2-3-------------------------------------
c-0-2-0-2-3---0-2-0-2-3-------------------------------------

PM this bit(4 times)                  play this bit after
                                             that
d----------------------------------]------------------------
a----------------------------------]------------------------
f----------------------------------]------------------------
c----------------------------------]--2---------------------
g---------3---------------3--------]--2---------------------
c-0-2-0-2---2-0-2-0-2-0-2---2-0-2--]--2---------------------

play this 8 times

d-----------------------------------------------------------
a-----------------------------------------------------------
f---------4-----------4-------------------------------------
c-0-2-0-2-3---0-2-0-2-3-------------------------------------
g-0-2-0-2-3---0-2-0-2-3-------------------------------------
c-0-2-0-2-3---0-2-0-2-3-------------------------------------

Riff 2(play 3 times)

then brake out into this bit(play 15 times)

d-----------------------------------------------------------
a-----------------------------------------------------------
f---------4-----------4-------------------------------------
c-0-2-0-2-3---0-2-0-2-3-------------------------------------
g-0-2-0-2-3---0-2-0-2-3-------------------------------------
c-0-2-0-2-3---0-2-0-2-3-------------------------------------  
outro(play twice) slide the 13 down on the first time

d-----------------------------------------------------------
a-----------------------------------------------------------
f-----------------------------------------------------------
c-----------------------------------------------------------
g-----------3--------------3--------------3-----------------
c-2-0-2-0-2--2-0-2-0-2-0-2--2-0-2-0-2-0-2--2-0-2-0-2-0-2-13-

well thats what i think. 


Текст, аккорды и табулатура для песни "Elite", исполняет "Deftones".
Используемые в песне аккорды можно найти в разделе Как брать аккорды. Аккорды для шестиструнной гитары. Другие песни можно найти на нашем сайте, воспользовавшись алфавитным указателем вверху страницы.


Слушать онлайн Elite


DeftonesElite на Яндекс.Музыке


 
Ошибка в тексте? Выделите ошибку и нажмите Ctrl+Enter