I have put this up on several other tab sites as well, because most...
even some I've seen here are wrong.  

Tuned to Drop C (C-G-C-F-A-D) (Drop D and one Whole Step Down).

Intro (minor distortion)

D|-------------------------------------------------|
A|-------------------------------------------------|
F|--10-10-10-10-10-10-10-10-10-10-10-10-10-10-10---|
C|-------------------------------------------------|
G|--8--8--8--8--8--8--8--8--8--8--8--8--8--8--8--0-|
C|--0--0--0--0--0--0--0--0--0--0--0--0--0--0--0--0-|


D|-------------------------------------------------|
A|-------------------------------------------------|
F|-------8-8-8-7-7-7-8-8-8-8-7---------------------|
C|-------5-5-5-5-5-5-5-5-5-5-5-5-5-----------------|
G|-5-5-5-----------------------5-5-----------------|
C|-5-5-5-----------------------5-5-----------------|


Chorus (heavy distortion)


D|---------------------------------|---------------------------------------------||
A|---------------------------------|---------------------------------------------||
F|-7-7-7-7-7-7-7-7-7-7-7-7-7-7-7-7-|-10-10-10-10-10-10-10-10-10-10-10-10-10-10---||
C|-7-7-7-7-7-7-7-7-7-7-7-7-7-7-7-7-|-10-10-10-10-10-10-10-10-10-10-10-10-10-10---||
G|-5-5-5-5-5-5-5-5-5-5-5-5-5-5-5-5-|-8--8--8--8--8--8--8--8--8--8--8--8--8--8----||
C|-0-0-0-0-0-0-0-0-0-0-0-0-0-0-0-0-|-8--8--8--8--8--8--8--8--8--8--8--8--8--8----||


Bridge:

D|--------------------------------|----------------------------------------------||
A|--------------------------------|----------------------------------------------||
F|-5---5-5---5-5---5-5---5-5---5--|--7--7--7--7---7--7--7--7--7---7--7---7-------||
C|-3---3-3---3-3---3-3---3-3---3--|--7--7--7--7---7--7--7--7--7---7--7---7-------||
G|-3---3-3---3-3---3-3---3-3---3--|--5--5--5--5---5--5--5--5--5---5--5---5-------||
C|-3---3-3---3-3---3-3---3-3---3--|--0--0--0--0---0--0--0--0--0---0--0---0-------||


Verse 3:

D|--------------------------|---------------------------------||
A|--------------------------|---------------------------------||
F|-5--5-5-5-5-5---5-5-------|---------------------------------||
C|-3--3-3-3-3-3---3-3-------|------8-8-8-7-7-7---------7-7----||
G|-3--3-3-3-3-3---3-3-------|-------------------8-8-8------8--||
C|-3--3-3-3-3-3---3-3---3/0-|--5-5----------------------------||



D|--------|---------------------------------|----------------||
A|--------|---------------------------------|----------------||
F|-10-----|---------------------------------|--10------------||
C|--------|---------8-8-8-7-7-7-------------|----------------||
G|-8------|---------------------8-8-8-7-7-7-|--8-------------||
C|-0------|---5-5-5-------------------------|--0-------------||


Chorus:
There is a variation from the first chorus

D|-------------------------------------------------|-------------------------------------||
A|-------------------------------------------------|-------------------------------------||
F|--10-10-10-10-10-10-10-10-10-10-10-10-10-10-10---|-------------------------------------||
C|-------------------------------------------------|--5-5-5-8-8-8-7-7-7-8-8-8-8-7-7-5----||
G|--8--8--8--8--8--8--8--8--8--8--8--8--8--8--8--0-|--5-5-5-5-5-5-5-5-5-5-5-5-5-5-5-5----||
C|--0--0--0--0--0--0--0--0--0--0--0--0--0--0--0--0-|--5-5-5-5-5-5-5-5-5-5-5-5-5-5-5-5----||


Bridge
Again, it is different than the last Bridge

D|-------------------------------|-----------------------------------------------------||
A|-------------------------------|-----------------------------------------------------||
F|--5--5-5----5---5-5---5-5---5--|-7--7--7--9--9--9--10-10-10--12-12-12--10-10-10--10--||
C|--3--3-3----3---3-3---3-3---3--|-----------------------------------------------------||
G|--3--3-3----3---3-3---3-3---3--|-5--5--5--7--7--7--8--8--8---10-10-10--8--8--8---8---||
C|--3--3-3----3---3-3---3-3---3--|-0--0--0--0--0--0--0--0--0---0--0--0---0--0--0---0---||


Outro:


D|-------------------------------------------|--------------------------------||
A|-------------------------------------------|--------------------------------||
F|-10---10-----10------10-----10--10--10--10-|--7----7-----7----7-----7---7---||
C|-------------------------------------------|--5----5-----8----8-----8---8---||
G|-8----8------8-------8------8---8---8---8--|--5----5-----5----5-----5---5---||
C|-0----0------0-------0------0---0---0---0--|--5----5-----5----5-----5---5---||


D|--------------------------------|--------------------||---------------------||
A|--------------------------------|--------------------||---------------------||
F|-10---10---10---10--10-10-10-10-|--7---7---7--7--7---||--7--------7--7------||
C|--------------------------------|--5---5---8--8--8---||--5--------5--8------||
G|-8----8----8----8---8--8--8--8--|--5---5---5--5--5---||--5--------5--5------||
C|-0----0----0----0---0--0--0--0--|--5---5---5--5--5---||--5--------5--5------||
                                                           (with feedback)


Текст, аккорды и табулатура для песни "Change", исполняет "Deftones".
Используемые в песне аккорды можно найти в разделе Как брать аккорды. Аккорды для шестиструнной гитары. Другие песни можно найти на нашем сайте, воспользовавшись алфавитным указателем вверху страницы.


Слушать онлайн Change


DeftonesChange на Яндекс.Музыке


 
Ошибка в тексте? Выделите ошибку и нажмите Ctrl+Enter