Tabbed by: Brian Moura ([email protected])

This is one of my favorite songs, so i couldn't resist tabbing it. Deftones Rock!

Tuned: CGCFAD

Intro: (x6)

----------------------------------------------------------------------
----------------------------------------------------------------------
-10-10-10-10-10-10-10-10-10-10-10-10-10-10-10-------------------------
--x--x--x--x--x--x--x--x--x--x--x--x--x--x--x--x----------------------
--8--8--8--8--8--8--8--8--8--8--8--8--8--8--8--0----------------------
--0--0--0--0--0--0--0--0--0--0--0--0--0--0--0--0----------------------

----------------------------------------------------------------------
----------------------------------------------------------------------
----------------------------------------------------------------------
-------8-8-8-7-7-7-8-8-8-8-7-5-5--------------------------------------
-5-5-5-5-5-5-5-5-5-5-5-5-5-5-5-5--------------------------------------
-5-5-5-----------------------5-5--------------------------------------

ChOrUs: (x4)

---------------------------------------------------------------------
---------------------------------------------------------------------
-7-7-7-7-7-7-7-7-7-7-7-7-7-7-7-7-10-10-10-10-10-10-10-10-10-10-10-10-
-7-7-7-7-7-7-7-7-7-7-7-7-7-7-7-7--8--8--8--8--8--8--8--8--8--8--8--8-
-5-5-5-5-5-5-5-5-5-5-5-5-5-5-5-5--8--8--8--8--8--8--8--8--8--8--8--8-
-0-0-0-0-0-0-0-0-0-0-0-0-0-0-0-0--8--8--8--8--8--8--8--8--8--8--8--8-

--------|
--------|
-10---10|
--8----8|
--8----8|
--8----8|

VeRsE #1 (x4)

----------------------------------------------------------------------
----------------------------------------------------------------------
-10-10-10-10-10-10-10-10-10-10-10-10-10-10-10-------------------------
--x--x--x--x--x--x--x--x--x--x--x--x--x--x--x--x----------------------
--8--8--8--8--8--8--8--8--8--8--8--8--8--8--8--0----------------------
--0--0--0--0--0--0--0--0--0--0--0--0--0--0--0--0----------------------

----------------------------------------------------------------------
----------------------------------------------------------------------
----------------------------------------------------------------------
-------8-8-8-7-7-7-8-8-8-8-7-5-5--------------------------------------
-5-5-5-5-5-5-5-5-5-5-5-5-5-5-5-5--------------------------------------
-5-5-5-----------------------5-5--------------------------------------



ChOrUs: (x4)

---------------------------------------------------------------------
---------------------------------------------------------------------
-7-7-7-7-7-7-7-7-7-7-7-7-7-7-7-7-10-10-10-10-10-10-10-10-10-10-10-10-
-7-7-7-7-7-7-7-7-7-7-7-7-7-7-7-7--8--8--8--8--8--8--8--8--8--8--8--8-
-5-5-5-5-5-5-5-5-5-5-5-5-5-5-5-5--8--8--8--8--8--8--8--8--8--8--8--8-
-0-0-0-0-0-0-0-0-0-0-0-0-0-0-0-0--8--8--8--8--8--8--8--8--8--8--8--8-

--------|
--------|
-10---10|
--8----8|
--8----8|                                                       
--8----8|                                                        
                                                                 
PoSt ChOrUs:(x3 And A Half) Last time through Do not repeat the 2nd part 
of the post chorus. 
                                                                      
----------------------------------------------------------------------
----------------------------------------------------------------------
-5--5-5--5-5--5-5--5-5--5-7-7-7-7--7-7-7-7-7--7-7--7------------------
-3--3-3--3-3--3-3--3-3--3-7-7-7-7--7-7-7-7-7--7-7--7------------------
-3--3-3--3-3--3-3--3-3--3-5-5-5-5--5-5-5-5-5--5-5--5------------------
-3--3-3--3-3--3-3--3-3--3-0-0-0-0--0-0-0-0-0--0-0--0------------------

BrIdGe:

----------------------------------------------------------------------
----------------------------------------------------------------------
------------------------------------10--------------------------------
-----8-8-8-7-7-7-8-8-8------7-7---------------------------------------
----------------------8-8-8----8-----8--------------------------------
-5-5---------------------------------0--------------------------------

----------------------------------------------------------------------
----------------------------------------------------------------------
------------------------------------10--------------------------------
------8-8-8-7-7-7-----------------------------------------------------
-----------------8-8-8-7-7-7---------8--------------------------------
-5-5-5-------------------------------0--------------------------------

----------------------------------------------------------------------
----------------------------------------------------------------------
------------------------------------10--------------------------------
-------8-8-8-7-7-7------7-7-------------------------------------------
------------------8-8-8----8-8-------8--------------------------------
--5-5-5------------------------------0--------------------------------

----------------------------------------------------------------------
----------------------------------------------------------------------
----------------------------------------------------------------------
------8-8-8-7-7-7-----------------------------------------------------
-----------------8-8-8-7----------------------------------------------
-5-5-5----------------------------------------------------------------

Final Chorus: (x4)

----------------------------------------------------------------------
----------------------------------------------------------------------
-10-10-10-10-10-10-10-10-10-10-10-10-10-10-10-------------------------
--x--x--x--x--x--x--x--x--x--x--x--x--x--x--x--x----------------------
--8--8--8--8--8--8--8--8--8--8--8--8--8--8--8--0----------------------
--0--0--0--0--0--0--0--0--0--0--0--0--0--0--0--0----------------------

----------------------------------------------------------------------
----------------------------------------------------------------------
----------------------------------------------------------------------
-5-5-5-8-8-8-7-7-7-8-8-8-8-7-5-5--------------------------------------
-5-5-5-5-5-5-5-5-5-5-5-5-5-5-5-5--------------------------------------
-5-5-5-5-5-5-5-5-5-5-5-5-5-5-5-5--------------------------------------


Post Final Chorus: (x4)

----------------------------------------------------------------------
----------------------------------------------------------------------
-5--5-5--5-5--5-5--5-5--5-7-7-7-7--7-7-7-7-7--7-7--7------------------
-3--3-3--3-3--3-3--3-3--3-7-7-7-7--7-7-7-7-7--7-7--7------------------
-3--3-3--3-3--3-3--3-3--3-5-5-5-5--5-5-5-5-5--5-5--5------------------
-3--3-3--3-3--3-3--3-3--3-0-0-0-0--0-0-0-0-0--0-0--0------------------

Outro: (x3 And a Half)

----------------------------------------------------------------------
----------------------------------------------------------------------
-10--10--10--10--10-10-10-10--7--7--7--7--7--7------------------------
------------------------------5--5--5--5--5--5------------------------
--8---8---8---8---8--8--8--8--5--5--5--5--5--5------------------------
--0---0---0---0---0--0--0--0--5--5--5--5--5--5------------------------


Текст, аккорды и табулатура для песни "Change", исполняет "Deftones".
Используемые в песне аккорды можно найти в разделе Как брать аккорды. Аккорды для шестиструнной гитары. Другие песни можно найти на нашем сайте, воспользовавшись алфавитным указателем вверху страницы.


Слушать онлайн Change


DeftonesChange на Яндекс.Музыке


 
Ошибка в тексте? Выделите ошибку и нажмите Ctrl+Enter