OK   Everyones wrong!!! Here it is if u wanna actually play it.

intro and verse
E-----0-0-------5------------0-0------5p0----
B-----3-3--3p0-----3p0-------3-3--3p0-----3p0
G-----2-0--------------------2-0-------------
D-0-0-0-0----------------0-0-0-0-------------
A--------------------------------------------
E--------------------------------------------

Repeat that a couple of times.  Then kick in distortion for chorus.

Oh, Well this is...

E-----------------------------------------------
B-----------------------------------------------
G-----------------------------------------------
D-5-5--5-5---------------5-5--5-5---------------
A-5-5--5-5--0--5-7--5-0--5-5--5-5--0--5-7--5-0--
E-3-3--3-3---------------3-3--3-3---------------

------------------------------------------------
------------------------------------------------
-4-4--4-4-------2-------4-4--4-4-------2--------
-4-4--4-4--2-4-----4-2--4-4--4-4--2-4-----4-2---
-2-2--2-2---------------2-2--2-2----------------
------------------------------------------------

End of chorus:
---
---
-2-
-2-
-0-
---

Well, thats all folkes.  Its the real way to play the song.  If your intrested in the solo, i just didnt want to write it, feel free to email me.  [email protected]

Later


Текст, аккорды и табулатура для песни "Wasting My Time", исполняет "Default".
Используемые в песне аккорды можно найти в разделе Как брать аккорды. Аккорды для шестиструнной гитары. Другие песни можно найти на нашем сайте, воспользовавшись алфавитным указателем вверху страницы.


 
Ошибка в тексте? Выделите ошибку и нажмите Ctrl+Enter