Wasting My Time 
Default

You can play this song in standard tuning or Drop D.  
 I prefer Drop D so I’ll tab it that way.


Intro/ Verse						        * let ring
e|---------0----------------5p0-------|---------0----------|
B|--3—(3)-----3-----3------------3p0--|----3---------3-----|
G|--2------------4--------------------|----2---------4-----|
D|--0------------5--------------------|----0---------5-----|
A|------------------------------------|--------------------|
D|------------------------------------|--------------------|
		3x				4th time

Chorus
	2x				2x
e|----------------------------|----------------------------|
B|----------------------------|----------------------------|
G|----------------------------|---4-x-x-4-x-----^----------|
D|--5-x-x-5-x-----^-----------|---4-x-x-4-x-0-4-7-4-0------|
A|--5-x-x-5-x-0-5-7-5-0-------|---2-x-x-2-x----------------|
D|--5-x-x-5-x-----------------|----------------------------|
		   *slight bend

e|---------------------------|-------------------------|
B|---------------------------|-------------------------|
G|---------------------------|-------------------------|
D|--5-x-x-5-x-------^--------|---7-7-7-7-7-7-7-7-7-----|
A|--5-x-x-5-x--0-5-7-5-0-----|---7-7-7-7-7-7-7-7-7-----|
D|--5-x-x-5-x----------------|---7-7-7-7-7-7-7-7-7-----|
	
Verse 2  (same as Verse 1)


Chorus 2
	2x				2x
e|--------------------------|------------------------------|
B|--------------------------|------------------------------|
G|--------------------------|--4-x-x-4-x-----^-------------|
D|-5-x-x-5-x------^---------|--4-x-x-4-x-0-4-7-4-0---------|
A|-5-x-x-5-x--0-5-7-5-0-----|--2-x-x-2-x-------------------|
D|-5-x-x-5-x----------------|------------------------------|


	2x			  2x
e|--------------------------|------------------------------|
B|--------------------------|------------------------------|
G|--------------------------|--4-x-x-4-x-----^-------------|
D|-5-x-x-5-x------^---------|--4-x-x-4-x-0-4-7-4-0---------|
A|-5-x-x-5-x--0-5-7-5-0-----|--2-x-x-2-x-------------------|
D|-5-x-x-5-x----------------|------------------------------|


e|----------------------|----------------------------------|
B|----------------------|----------------------------------|
G|----------------------|----------------------------------|
D|---7-7-7-7-7-7-7-7-7--|--7-7-7-7-7-7-7-7-7---------------|
A|---7-7-7-7-7-7-7-7-7--|--7-7-7-7-7-7-7-7-7---------------|
D|---7-7-7-7-7-7-7-7-7--|--7-7-7-7-7-7-7-7-7---------------|


Solo
      *Let ring or play
e|-------------------/---------------------------|
B|------------------/----------------------------|
G|-------*---------/-----------------------------|
D|-------5--(2-0-2-0)---4-5-4h5p4-----------------|
A|--5-7-------------------------------------------|
D|------------------------------------------------|

e|------------------------------------| 
B|------------------------------------|
G|----------------------------2-------|
D|--------------------7---------------|
A|--4--5--2---4--2-----or--0----------|
D|--------------------7---------------|

e|-------------------------------------| 
B|-------------------------------------|
G|-------------------------------------|
D|--5h7-7-7-7-7-7-5-4-5-4-5/7----------|
A|-------------------------------------|
D|-------------------------------------|
						          
                             Let ring * 
e|-----------------|-------9--7--5------------------------|
B|--------7h8p7----|--7h8----------8--7h8--10--7h8p7------|
G|--7--9-----------|--------------------------------4---7-|
D|-----------------|--------------------------------------|
A|-----------------|--------------------------------------|
D|-----------------|--------------------------------------|

Verse	3					        
e|---------0--------------5p0--------------------|
B|--3—(3)--------3----3-------3p0----------------|
G|--2------------4-------------------------------|
D|--0------------5-------------------------------|
A|-----------------------------------------------|
D|-----------------------------------------------|
		8x	



Chorus 2
	2x				2x
e|--------------------------|----------------------------|
B|--------------------------|----------------------------|
G|--------------------------|--4-x-x-4-x-----^-----------|
D|-5-x-x-5-x------^---------|--4-x-x-4-x-0-4-7-4-0-------|
A|-5-x-x-5-x--0-5-7-5-0-----|--2-x-x-2-x-----------------|
D|-5-x-x-5-x----------------|----------------------------|

	2x			  2x
e|----------------------------|----------------------------|
B|----------------------------|----------------------------|
G|----------------------------|--4-x-x-4-x-----^-----------|
D|-5-x-x-5-x------^-----------|--4-x-x-4-x-0-4-7-4-0-------|
A|-5-x-x-5-x--0-5-7-5-0-------|--2-x-x-2-x-----------------|
D|-5-x-x-5-x------------------|----------------------------|

			* let ring
e|---------------------------|
B|---------------------------|
G|---------------------------|
D|---7-7-7-7-7-7-7-7-7-------|
A|---7-7-7-7-7-7-7-7-7-------|
D|---7-7-7-7-7-7-7-7-7-------|


Outro 						      
e|---------0-------------5p0------|-----0--------2----|
B|--3—(3)--------3----3------3p0--|---3----3-----3----|
G|--2------------4----------------|--2------2----2----|
D|--0------------5----------------|-0--------0---0----|
A|--------------------------------|-------------------|
D|--------------------------------|-------------------|
		3x				4th

This is only my second tab. I tabbed it completely by ear. If you can't play it in Drop D 
and can't transpose it to E standard then you have issues and should seek professional help
before you head explodes. If you have any ?'s or !'s e-mail me at [email protected] I 
will also accept props from my homies. If your sick of hearing this song don't tell me I 
don't care, try playing it. It's more fun to play a song than listen to it anyway.


Текст, аккорды и табулатура для песни "Wasting My Time", исполняет "Default".
Используемые в песне аккорды можно найти в разделе Как брать аккорды. Аккорды для шестиструнной гитары. Другие песни можно найти на нашем сайте, воспользовавшись алфавитным указателем вверху страницы.


 
Ошибка в тексте? Выделите ошибку и нажмите Ctrl+Enter