Submitted by: Doug cranston
Song:taking my life away
Band: Default
Tuning: Standard E(eadgbe)

First Verse:

e---0-----------------------0-----------------------
B---3---3-------------------3---3-------------------
G---2---4---0-------0-------2---4---0-------0-------
D---0---4---2---0---2---0---0---4---2---0---2---0---
A-------2---3---2---3---2-------2---3---2---3---2---
E---------------3-------3---------------3-------3---

e---0-----------------------0-----------
B---3---3-------------------3---3---1---
G---2---4---0/0---0/0---2---4---0---
D---0---4---2/42---2/42---0---4---2---
A-------2---3/53---3/53-------2---3---
E---------------------------------------

Pre-Chorus:

e---0-----------0---
B---3---3---1---3---
G---2---4---0---2---
D---0---4---2---0---
A-------2---3-------
E-------------------

Chorus:

e-------------------------------------------
B-------------------------------------------
G---7---------------------------------------
D---7---5---2---5---5---4-------5---4-------
A---5---5---2---5-----------5-----------5---
E-------3---0---3---------------------------

Second verse:

e---0-----------------------0-----------------------
B---3---3-------------------3---3-------------------
G---2---4---0-------0-------2---4---0-------0-------
D---0---4---2---0---2---0---0---4---2---0---2---0---
A-------2---3---2---3---2-------2---3---2---3---2---
E---------------3-------3---------------3-------3---

e---0-----------------------0---------------------
B---3---3-------------------3---3---1---1/3---3---
G---2---4---0/0---0/0---2---4---0---0/0---0---
D---0---4---2/42---2/42---0---4---2---2/4---4---
A-------2---3/53---3/53-------2---3---3/5---5---
E-------------------------------------------------

Bridge (play twice) :

e-------------------------------
B-------------------------------
G---3---x-x-x-x-----------------
D---3---x-x-x-x---3---x-x-x-x---
A---1---x-x-x-x---3---x-x-x-x---
E-----------------1---x-x-x-x---

e--------------------
B--------------------
G---5-/-7-/-9-/-10---
D---x---x-/-x-/-x----
A---3-/-5-/-7-/-8----
E--------------------

Solo:

e----------------------------------------------------------------------------
B----------------------------------------------------------------------------
G----------------------------------------------------------------------------
D----------------------------------------------------------------------------
A---10---8---7---8----10---8---7---8---10---8---7---8---10---8---7---8-------
E------------------------------------------------------------------------8t--

e----------------------------------------------------------------------------
B----------------------------------------------------------------------------
G----------------------------------------------------------------------------
D-----------------------------------------------------------------------10t--
A---10---8---7---8----10---8---7---8---10---8---7---8---10---8---7---8-------
E----------------------------------------------------------------------------

e---------------------------
B---------------------------
G---------------------------
D---------------------------
A---------------------------
E---6---3---1---0---1---3---

Pre-Chorus:

e---0-----------0---
B---3---3---1---3---
G---2---4---0---2---
D---0---4---2---0---
A-------2---3-------
E-------------------

End to final Chorus:

e-------------------
B-------------------
G-------------------
D---5---5---4-------
A---5-----------5---
E---3---------------
Repeat three times

End on:

e-------
B-------
G---7---
D---7---
A---5---
E-------

t=trill


Текст, аккорды и табулатура для песни "Taking My Life Away", исполняет "Default".
Используемые в песне аккорды можно найти в разделе Как брать аккорды. Аккорды для шестиструнной гитары. Другие песни можно найти на нашем сайте, воспользовавшись алфавитным указателем вверху страницы.


 
Ошибка в тексте? Выделите ошибку и нажмите Ctrl+Enter