Default - Deny



Please Note:  I tabbed absolutely all of this song, just play 
              all the way down to the bottom, if you need help
	      listen to the song.


Guitar is tuned in drop D :  D A D G B E
_____________________________________________________________________________________________________

Intro (Distorted):


e|---------------------------------------------------------------|
b|---------------------------------------------------------------|
G|----12---10--------9----10-9------------2---0-------4---5-4----|
D|---------------------------------------------------------------|  x2
A|---------------------------------------------------------------|
D|--0----0--------10---10------10-------3---3-------5---5-----5--|



To    Day I woke up____.            And you were gone____.
The   Whole day wondering____.           What I did wrong____. 
e|--------------------------------------------------------------------------------------------------|
b|--------------------------------------------------------------------------------------------------|
G|------12---10------------2----0------------9--------9---10------------4-----5---4-----------------|
D|--------------------------------------------------------------------------------------------------|
A|--------------------------------------------------------------------------------------------------|
D|----0----0------------3----3-----------10-------10--------10-------5-----5---------5--------------|


It's like im____

      Falling from a________________.  A  mountain  top______.
My    Heart keeps poun___ding_____.     And  it  won't  stop____.
e|--------------------------------------------------------------------------------------------------|
b|--------------------------------------------------------------------------------------------------|
G|------12---10------------2----0----------9--------9---10------------4-----5---4-------------------|
D|--------------------------------------------------------------------------------------------------|
A|--------------------------------------------------------------------------------------------------|
D|----0----0------------3----3---------10-------10--------10-------5-----5---------5----------------|

_____________________________________________________________________________________________________


Bridge (Distorted):


    Can you see this _______.  Hell im living_______. 

e|--0---0----0---0---0-0-0----0---0----0---0---0-0-0------------------------------|
b|--1---1----3---3---3-3-3----1---1----3---3---3-3-3------------------------------|
G|--0---0----0---0---0-0-0----0---0----0---0---0-0-0------------------------------|
D|--2---2----4---4---4-4-4----2---2----4---4---4-4-4------------------------------|  
A|--3---3----5---5---5-5-5----3---3----5---5---5-5-5------------------------------|
D|--0---0----0---0---0-0-0----0---0----0---0---0-0-0------------------------------|


    I'm not giving _________.  Up___________________.

e|--0---0----0---0---0-0-0-----0--------------------------------------------------|
b|--1---1----3---3---3-3-3-----1--------------------------------------------------|
G|--0---0----0---0---0-0-0-----0--------------------------------------------------|
D|--2---2----4---4---4-4-4-----2--------------------------------------------------|  
A|--3---3----5---5---5-5-5-----3--------------------------------------------------|
D|--0---0----0---0---0-0-0-----0--------------------------------------------------|

_____________________________________________________________________________________________________

Interlude (Distorted):


e|--0----0----0--0---0-0-0---------------------------0----0----0--0---0-0-0-------------------------|
b|--8----6----3--3---3-3-3---------------------------8----6----3--3---3-3-3-------------------------|
G|--0----0----0--0---0-0-0-----5---------------------0----0----0--0---0-0-0-------------------------|
D|--9----7----4--4---4-4-4-----2---3---0-------------9----7----4--4---4-4-4------------------0------|
A|-10----8----5--5---5-5-5-----3---3---0------------10----8----5--5---5-5-5---------0--3-----0------|
D|--0----0----0--0---0-0-0---------3---0-------------0----0----0--0---0-0-0------0--0--3--0--0------|

_____________________________________________________________________________________________________

Verse (Distorted):

         Will_____________  You_____________ Crawl to me_________.
         Will_____________  You_____________ Fall with me________.
         I'll_____________  Never___________ Crawl to you________.
         I've_____________  Done it_________ All for you_________.

e|-0--0-----------0--0-----------------------0----0---0--0--0-0-0-----------------------------------|
b|-3--3-----------3--3-----------------------0----0---0--0--0-0-0-----------------------------------|
G|-2--2-----------2--2-----------------------2----2---0--0--0-0-0-----------------------------------|
D|-0--0-----------0--0-----------------------3----3---2--2--2-2-2-----------------------------------|
A|-0--0-----------0--0-----------------------0----0---3--3--3-3-3-----------------------------------|
D|-0--0-----------0--0-----------------------0----0---0--0--0-0-0-----------------------------------|
                                                        |^^^^^^^^|--------Please Note: 
                                                                  That part  can  be  added or not 
                                                                  added  depending  on  what   you 
                                                                  like. (I use it for the acoustic
                                                                  verson of the song.)       
_____________________________________________________________________________________________________

Chorus (Distorted):


(Don't de______ny___.)
                 Well don't deny_______.                         The hand that feeds you needs you__.

e|--0----0----0--0---0-0-0---------------------------0----0----0---0----0--0--0---------------------|
b|--8----6----3--3---3-3-3---------------------------8----6----3---3----3--3--3---------------------|
G|--0----0----0--0---0-0-0----5----------------------0----0----0---0----0--0--0-----5---------------|
D|--9----7----4--4---4-4-4----2----3---0-------------9----7----4---4----4--4--4-----2---3---0-------|
A|-10----8----5--5---5-5-5----3----3---0------------10----8----5---5----5--5--5-----3---3---0-------|
D|--0----0----0--0---0-0-0---------3---0-------------0----0----0---0----0--0--0---------3---0-------|

(There_____she goes____.)
                 Oh god I'd die to try to_.                      Fin___ally   ple____ase  you_______.

e|--0----0----0--0---0-0-0---------------------------0----0----0---0----0--0--0---------------------|
b|--8----6----3--3---3-3-3---------------------------8----6----3---3----3--3--3---------------------|
G|--0----0----0--0---0-0-0-----5---------------------0----0----0---0----0--0--0---------------------|
D|--9----7----4--4---4-4-4-----2---3---0-------------9----7----4---4----4--4--4---------------0-----|
A|-10----8----5--5---5-5-5-----3---3---0------------10----8----5---5----5--5--5------0--3-----0-----|
D|--0----0----0--0---0-0-0---------3---0-------------0----0----0---0----0--0--0---0--0--3--0--0-----|

_____________________________________________________________________________________________________

Verse2 (Distorted):

         There____________ Goes______ A piece of me______.
         Will_____________ I_________ Cease to be________.
         I've_____________ Never_____ Lied to you________.
         Fought___________ Bled______ And died for you___.

e|-0--0-----------0--0----------------0----0---0--0--0-0-0-----------------------------------|
b|-3--3-----------3--3----------------0----0---0--0--0-0-0-----------------------------------|
G|-2--2-----------2--2----------------2----2---0--0--0-0-0-----------------------------------|
D|-0--0-----------0--0----------------3----3---2--2--2-2-2-----------------------------------|
A|-0--0-----------0--0----------------0----0---3--3--3-3-3-----------------------------------|
D|-0--0-----------0--0----------------0----0---0--0--0-0-0-----------------------------------|
                                                 |^^^^^^^^|--------Please Note: 
                                                           That part  can  be  added or not 
                                                           added  depending  on  what   you 
                                                           like. (I use it for the acoustic
                                                           verson of the song.)

_____________________________________________________________________________________________________

Chorus2 (Distorted):


(Do___n't de___ny___.)
                 Well don't deny_______.                         The hand that feeds you needs you__.

e|--0----0----0--0---0-0-0---------------------------0----0----0---0----0--0--0---------------------|
b|--8----6----3--3---3-3-3---------------------------8----6----3---3----3--3--3---------------------|
G|--0----0----0--0---0-0-0-----5---------------------0----0----0---0----0--0--0-----5---------------|
D|--9----7----4--4---4-4-4-----2---3---0-------------9----7----4---4----4--4--4-----2---3---0-------|
A|-10----8----5--5---5-5-5-----3---3---0------------10----8----5---5----5--5--5-----3---3---0-------|
D|--0----0----0--0---0-0-0---------3---0-------------0----0----0---0----0--0--0---------3---0-------|

(There_____she goes____.)
                 Oh god I'd die to try to_.                      Fin___ally   ple____ase  you_______.

e|--0----0----0--0---0-0-0---------------------------0----0----0---0----0--0--0---------------------|
b|--8----6----3--3---3-3-3---------------------------8----6----3---3----3--3--3---------------------|
G|--0----0----0--0---0-0-0-----5---------------------0----0----0---0----0--0--0---------------------|
D|--9----7----4--4---4-4-4-----2---3---0-------------9----7----4---4----4--4--4---------------0-----|
A|-10----8----5--5---5-5-5-----3---3---0------------10----8----5---5----5--5--5------0--3-----0-----|
D|--0----0----0--0---0-0-0---------3---0-------------0----0----0---0----0--0--0---0--0--3--0--0-----|

_____________________________________________________________________________________________________

Bridge2 (distorted):    

    There_____   she Goes________. And I'm On the ground. Im on the ground. Im on the___.

e|---------------------------------------------------------------------------------------|
b|---------------------------------------------------------------------------------------|
G|----12-----10----------9------10---9----------------2-----0---------4------5----4------|  x3
D|---------------------------------------------------------------------------------------|  
A|---------------------------------------------------------------------------------------|
D|--0------0----------10-----10--------10-----------3-----3---------5------5--------5----|

    There______ she goes_____ and       I'm on the ground I'm on the ground I'm on the______.

e|-----------------------------------------------------------------------------------------------|
b|-----------------------------------------------------------------------------------------------|
G|----12----10-------9------10--9----------------------------------------------------------------|  
D|---------------------------------------3--3--3--3--3--3--3--3------5--5--5--5--5---------------|  
A|---------------------------------------3--3--3--3--3--3--3--3------5--5--5--5--5---------------|
D|--0----0------10------10---------10----3--3--3--3--3--3--3--3------5--5--5--5--5----5/--15----|
                                        |^^^^^^^^^^^^^^^Palm Mute^^^^^^^^^^^^^^^^^|

_____________________________________________________________________________________________________

Chorus3 (Distorted):


(Do___n't de___ny___.)
                 Well don't deny_______.                         The hand that feeds you needs you__.

e|--0----0----0--0---0-0-0---------------------------0----0----0---0----0--0--0---------------------|
b|--8----6----3--3---3-3-3---------------------------8----6----3---3----3--3--3---------------------|
G|--0----0----0--0---0-0-0-----5---------------------0----0----0---0----0--0--0-----5---------------|
D|--9----7----4--4---4-4-4-----2---3---0-------------9----7----4---4----4--4--4-----2---3---0-------|
A|-10----8----5--5---5-5-5-----3---3---0------------10----8----5---5----5--5--5-----3---3---0-------|
D|--0----0----0--0---0-0-0---------3---0-------------0----0----0---0----0--0--0---------3---0-------|

(There_____she goes____.)
                 Oh god I'd die to try to_.                      Fin___ally   ple____ase  you_______.

e|--0----0----0--0---0-0-0---------------------------0----0----0---0----0--0--0---------------------|
b|--8----6----3--3---3-3-3---------------------------8----6----3---3----3--3--3---------------------|
G|--0----0----0--0---0-0-0-----5---------------------0----0----0---0----0--0--0---------------------|
D|--9----7----4--4---4-4-4-----2---3---0-------------9----7----4---4----4--4--4---------------0-----|
A|-10----8----5--5---5-5-5-----3---3---0------------10----8----5---5----5--5--5------0--3-----0-----|
D|--0----0----0--0---0-0-0---------3---0-------------0----0----0---0----0--0--0---0--0--3--0--0-----|

_____________________________________________________________________________________________________

Verse3 (Distorted):

         Will_____________  You_____________ Crawl to me_________.
         Will_____________  You_____________ Fall with me________.
         I'll_____________  Never___________ Crawl to you________.
         I've_____________  Done it_________ All for you_________. I do a volume swell here (sounds cool.)
                                                                   /
e|-0--0-----------0--0-----------------------0----0---0--0--0-0-0-----------------------------------|
b|-3--3-----------3--3-----------------------0----0---0--0--0-0-0-----------------------------------|
G|-2--2-----------2--2-----------------------2----2---0--0--0-0-0-----------------------------------|
D|-0--0-----------0--0-----------------------3----3---2--2--2-2-2-----------------------------------|
A|-0--0-----------0--0-----------------------0----0---3--3--3-3-3-----------------------------------|
D|-0--0-----------0--0-----------------------0----0---0--0--0-0-0-----------------------------------|
                                                        |^^^^^^^^|--------Please Note: 
                                                                  That part  can  be  added or not 
                                                                  added  depending  on  what   you 
                                                                  like. (I use it for the acoustic
                                                                  verson of the song.)       
_____________________________________________________________________________________________________

	Order of Song:
	 Intro
	 Bridge
	 Interlude
	 Verse
	 Chorus
	 Verse2
	 Chorus2
	 Bridge2
	 Chorus3
	 Verse3



There you go that is all of it, this is a great
song and its a lot of fun to play if you have
any questions or comments please email me at
            [email protected]

-Jaron


Текст, аккорды и табулатура для песни "Deny", исполняет "Default".
Используемые в песне аккорды можно найти в разделе Как брать аккорды. Аккорды для шестиструнной гитары. Другие песни можно найти на нашем сайте, воспользовавшись алфавитным указателем вверху страницы.


 
Ошибка в тексте? Выделите ошибку и нажмите Ctrl+Enter