--------------------------------------------------------------------------
	                Break Down Doors - Default
--------------------------------------------------------------------------

Tabbed by: Andy O'Rourke
Email: [email protected]

Tuning: Dropped-D, D-a-D-g-b-E

I was playing around with some Default... and this popped up
It's only the intro, verse and Pre-chorus for now.. but i'll have the
rest... Enjoy!!

Intro:
e|-----------------------------------------------|
B|-----------------------------------------------|
G|-----------------------------------------------|
D|-----------------------------------------------|
A|--5--7--5--3---x--5--7--5--3---x--x--x--x--x---|
E|-----------3---x-----------3---x--x--x--x--x---|

e|-----------------------------------------------|
B|-----------------------------------------------|
G|-----------------------------------------------|
D|-----------------------------------------------|
A|--7--5-----5---x--7--5-----5---x--5/7----------|
E|--------7--5---x--------7--5---x--5/7----------|

Play intro twice, and when lyrics come in play the root notes only
With palm muting.

Then play:
Pre-Chorus:
e|------------------|------------------|------------------|
B|------------------|------------------|------------------|
G|------------------|------------------|------------------|
D|---------9--9--7--|---------9--9--7--|---------9--9--7--|
A|--3--3---7--7--5--|--3--3---7--7--5--|--3--3---7--7--5--|
E|--3--3------------|--3--3------------|--3--3------------|

e|-------------------------------|
B|-------------------------------|
G|-------------------------------|
D|---------9--9--7--7-7-7-7-7--7-|
A|--3--3---7--7--5--5-5-5-5-5--5-|
E|--3--3-------------------------|


Текст, аккорды и табулатура для песни "Break Down Doors", исполняет "Default".
Используемые в песне аккорды можно найти в разделе Как брать аккорды. Аккорды для шестиструнной гитары. Другие песни можно найти на нашем сайте, воспользовавшись алфавитным указателем вверху страницы.


 
Ошибка в тексте? Выделите ошибку и нажмите Ctrl+Enter