T1: Steve everett, [email protected], Def LEppard, promises,
21/july/1999

S1: Great song ....solo is coming soon, Promises
       by  Def Leppard
         off Euphoria
key
------
 h  = hammer-on
 p  = pull-off
 b  = bend
 r  = bend release
 /  = slide up/down

Intro: 
   Guitar 1 (w/dist)
E|-----------------|-----------------|-----------------|------------------|
B|-----------------|-----------------|-----------------|------------------|
G|---9-8---8-9-8---|---6-9-----9-----|---7-9---6-9-6---|-7-6-------9-11-9-|
D|-9-----9-------9-|-7-----6-9---9-6-|-7-----7-------7-|-----7------------|
A|-----------------|-----------------|-----------------|-------7----------|
E|-----------------|-----------------|-----------------|------------------|
 
 |                                                                     
  |
 | Guitar 2 (w/dist)                                                   
  |
E|-----------------|-----------------|-----------------|------------------|
B|-----------------|-----------------|-----------------|------------------|
G|-----------------|-----------------|-7-----6---------|-7-6--------------|
D|-----------------|-----------------|-7-----7---------|-7---7------------|
A|-----------------|-----------------|-----------------|-------7----------|
E|-----------------|-----------------|-----------------|------------------|


Verse 1:
   Riff 1                                                         End
Riff 1 
   Guitar 1 (w/dist)                                                   
  x3
E|------------------|-----------------|-----------------|-------------------|
B|*-----------------|-----------------|-----------------|------------------*|
G|----9-8---8-9-8---|---6-9-----9-----|---7-9---6-9-6---|-7-6-------9-11-9--|
D|--9-----9-------9-|-7-----6-9---9-6-|-7-----7-------7-|-----7-------------|
A|*-----------------|-----------------|-----------------|-------7----------*|
E|------------------|-----------------|-----------------|-------------------|
 |                                                                     
    |
 | Guitar 2 (w/dist)                                                   
    |
E|------------------|-----------------|-----------------|-------------------|
B|*-----------------|-----------------|-----------------|------------------*|
G|--9-9-----8-8-----|-6-6-------9-----|-7-7---6---------|-7-6-------9-11-9--|
D|--9-9-----9-9-----|-7-7---6-9---9-6-|-7-7---7---------|-7---7-------------|
A|*-----------------|-----------------|-----------------|-------7----------*|
E|------------------|-----------------|-----------------|-------------------|


Pre-chorus 1:
   Riff 2                                                           
End Riff 2
   Guitar 3 (clean)
E|-------0----|------------|-------0----|------------|-------0----|------------|
B|-------2----|------------|-------2----|------------|-------2----|------------|
G|-----2------|------------|-----2------|------------|-----2------|------------|
D|---2--------|------------|---2--------|------------|---2--------|------------|
A|------------|------------|-0----------|------------|-0----------|------------|
E|-2----------|------------|------------|------------|------------|------------|




Текст, аккорды и табулатура для песни "Promises", исполняет "Def Leppard".
Используемые в песне аккорды можно найти в разделе Как брать аккорды. Аккорды для шестиструнной гитары. Другие песни можно найти на нашем сайте, воспользовавшись алфавитным указателем вверху страницы.


Слушать онлайн Promises


Def LeppardPromises на Яндекс.Музыке


 
Ошибка в тексте? Выделите ошибку и нажмите Ctrl+Enter