Love Bites
 	       	      by Def Leppard
 
 
 
 Fig. A									end  A
 Sustain chords, light tremolo arm.
 ------------------------------------------------------------------------------
 -----------6-------------------3---------------------6----------------1-------
 -----------5-------------------3------------------3-------------------0--0----
 -------7-----------------------7---------------5--------------------3----3----
 ---5------------------------5---------------3--------------------3------------
 ------------------------3--------------------------------------1--------------
 
 Repeat A three more times over verse.
 
 
 
 -----------------------------------
 -----------------------------------
 ----7----------------10vvvvvvvvv---
 ----7----------------10vvvvvvvvv---
 ----5----------------8vvvvvvvvvv---
 -----------------------------------
 
 
 Fig A again, but substitue first chord with this;
 
 ----------------
 -----------6----
 -----------5----
 -------5--------
 ---3------------
 ----------------
 
 Chorus;
 
 Guitar 2 plays chords					 v-- means play only a
 Eb5		 Ab5					(G)  G note, not chord.
 
 ---------------------6------4-----3-------4vvvvvvvvvv----
 ----6vvvvvvvvv----------------------------4vvvvvvvvvv----
 ----8vvvvvvvvv-------------------------------------------
 ----8vvvvvvvvv----6------6-----6------6------------------
 ---------------------------------------------------------
 ---------------------------------------------------------
 
 
 F5			    Bb5					      (Ab)
 
 ----------------------------------6-------8--------6--------6---(6)vvvvvv--
 -------------9vvvvvvvvvv------------------------------------6---(6vvvvvvv--
 -------------10vvvvvvvvv---------------------------------------------------
 -------------10vvvvvvvvv------8-------8--------8-------8--------(8)--------
 --3vvvvvvv-----------------------------------------------------------------
 --1vvvvvvv-----------------------------------------------------------------
 
 
 
 Eb5			Ab5					   Ab5/G
 --------------------------------6---------4-----------4--------4vvvvvvvv----
 ----6----------------------------------------------------------4vvvvvvvv----
 ----8-------8vvvvvv---------------------------------------------------------
 ----8-------8vvvvvv--------6----------6---------6----------6----------------
 ----------------------------------------------------------------------------
 ----------------------------------------------------------------------------
 
 
 F5			Bb5
 ------------------------------6----------8-----------6---------6--(6)vvvvv--
 ----6vvvvvvvvv---------------------------6----------------------------------
 ----5vvvvvvvvv--------------------------------------------------------------
 ----3vvvvvvvvv------------8----------8----------8---------8-------(8)vvvvv--
 ----------------------------------------------------------------------------
 ----------------------------------------------------------------------------
 
 Chorus------------------------------------------------------------------------|
 
 C5			Ab5		    F5 			Bb5
 -----10-----11vvvvvv-------10-----11vvvvvv------10------11vvvv-----11----10vv-
 --8------8--------------9------9-------------6-------6----------8------8------
 ------------------------------------------------------------------------------
 ------------------------------------------------------------------------------
 ------------------------------------------------------------------------------
 ------------------------------------------------------------------------------
 
 Repeat chorus above then;
 
 -------------------------------------------------------------
 -------------------------------------------------6vvvvvv-----
 ---5---------------------------------------------5vvvvvv-----
 ----------------5vvvvvvv-----------5vvvvvvvv-----3vvvvvv-----
 -----------3vvvvvvvvvvvv-------3vvvvvvvvvvvv-----------------
 -------4vvvvvvvvvvvvvvvv----1vvvvvvvvvvvvvvv-----------------
 
 
 2nd verse
 
 ------------------------------------------------------------------------
 ---6---5--------------------------3----------------------6---------5----
 -----------5-------7--------------3-------------------3---------3-------
 ---------------7------------------7----------------5---------5----------
 -------------------------------5---------------3------------------------
 ---------------------------3--------------------------------------------
 
 
 -----------------------------------------------------------------------
 ------------------------------1-------6--5-----------------------3-----
 ------------0-------------0-----------5-----5-----7--------------3-----
 --------3--------------3-----------------------7-----------------7-----
 -----3---------3----3-----------------------------------------5--------
 --1--------------------------------------------------------3-----------
 
 
 --------------------------------------------------------------------
 -------------6---------5-------------------------------------1------
 ---------3---------3-------------------0-----------------0----------
 ------5---------5-------------------3-------3---------3-------------
 ---3-----------------------------3----------3------3----------------
 ------------------------------1-------------------------------------
 
 
 -------------------------------------------------------------------
 ---6--5-------------------------3-------------------6----------5---
 ---5-----5-------7--------------3---------------3----------3-------
 ---7---------7------------------7----------5-----------5-----------
 ----------------------------5----------3---------------------------
 ------------------------3------------------------------------------
 
 
 -------------------
 -----------1-------
 -----------0---0---
 --------3------3---
 -----3-------------
 --1----------------
 
 
 Play chorus again.
 
 Solo;
 
 Dm (arppegiate w/ palm muting)
 
 ----------------------------------------3----------------------------------
 ----------------------------------------3----------------------------------
 -----5--5--5/7--7vvvvvvvv------107---2/3----------------------------------
 -------------------------------107----------5>3--3------------------------
 -------------------------------------------------------5--3--5--5vvvvvv----
 
    rake					      rake
    |---|				     |------|
 -----------------------------------------------------------------------------
 -----------6---5-----------------------------------10--10-10-10-11-11vvvvvv--
 -------5----------5------5/7--7vvvvvvvvv-------10-----10--------------------
 -----7----------------7----------------------12------------------------------
 ---5-------------------------------------------------------------------------
 -----------------------------------------------------------------------------
 
 
 ----------------------------------------------------------------------
 ----------13--13-13----13--13---13/1513---13/1513---13/1513---13---
 ------12------12-12----12--12---12/1412---12/1412---12/1412---12---
 --14------------------------------------------------------------------
 ----------------------------------------------------------------------
 ----------------------------------------------------------------------
 
 Play pre-chorus, and chorus fig. once, then;
 
 
 Fm	  Bb sus 2
 -----------1---
 --6--6-----1---
 --5--5-----3---
 --3--3-----3---
 ---------------
 ---------------
 
 
 Play chorus, exept substitute the part over the Bb5 for this.
 
 
 Bb5
 --11--10--8--------------
 -------------11vvvv--11--
 -------------------------
 -------------------------
 -------------------------
 -------------------------
 
 Play chorus fig. once then
 
 C5	Ab5			    F5
 ----------------------------------------------------------------------
 -----------------------------------------------------------------6----
 --5--------------------------------------------------------------5----
 ------------------5vvvvvvvvvv--------------------5vvvvvvvv-------3----
 -------------3vvvvvvvvvvvvvvv---------------3vvvvvvvvvvvvv------------
 --------4vvvvvvvvvvvvvvvvvvvv---------1vvvvvvvvvvvvvvvvvvv------------
 
 
 
 Transcribed by Wolf Marshall for Hal Leonard.


Текст, аккорды и табулатура для песни "Love bites", исполняет "Def Leppard".
Используемые в песне аккорды можно найти в разделе Как брать аккорды. Аккорды для шестиструнной гитары. Другие песни можно найти на нашем сайте, воспользовавшись алфавитным указателем вверху страницы.


Слушать онлайн Love Bites


Def LeppardLove Bites на Яндекс.Музыке


 
Ошибка в тексте? Выделите ошибку и нажмите Ctrl+Enter