Hysteria
 		    by Def Leppard
 
 
 Intro;
 
 						    v guitar 2 in here
 -------------------------------------------------------------------
 -------------------------------------------------------------------
 ----------0-------0--------0--------------0---------------0--------
 -----4-------4-------4-------4---------4-----4---------4-----4-----
 --5----5-------5--------5-------5----5---------5-----5----------5--
 -----------------------------------3--------------3----------------
 
 
 -------------------------------------------------------------------------
 -------------------------------------------------------------------------
 ------------0-----------------0-----------------0--------0------0--------
 --------4-------4----------4-----4--------4--------4-------4-------4-----
 -----2-------------2----5-----------5--5-----5--------5------5--------5--
 --0------------------3---------------------------------------------------
 
 
 Guitar 2 (during intro)
 
 ---5vvvvvvvvvvvvv-----------------------------------------------------
 ---5vvvvvvvvvvvvv-----------------------------------------------------
 -----------------------7vvvvvvvvv---7vvvvvvvvv------9----9--7----7--
 -----------------------7vvvvvvvvv---7vvvvvvvvv---7-------------7----
 ------------------------------------------------------------------------
 ------------------------------------------------------------------------
 
  verse- play intro twice, then;
 
 
 1 dist + 1 clean
 
 --------------------------------------------------------------------------
 --------------------------------------------------------------------------
 --------------------------------------------------------------------------
 -----4------5----4-----4------4-----5--4------------4---5---4----------4--
 --5-----5-----------5------5-----5--------5------5-------------5---5------
 ---------------------------------------------3--------------------3-------
 
 
 -------------------------------------------------------------------------
 -------------------------------------------------------------------------
 -------------------------------------------------------------------------
 --5---4------------4---5---4------------4----5----4---------4-----5---4--
 ---------5------2-------------2------5---------------5---5-----5---------
 ------------0--------------------3---------------------------------------
 
 
 ------------------------------------
 ------------------------------------
 ------------------------------------
 ------5--5---4---------5----4-------
 ---5--------------5-------------5---
 ------------------------------------
 
 
 Chorus (actually starts on beat 3 of previous bar)
 
 
 D    Dsus4     Cadd 9
 			I gotta know tonight, 
 			-----------0---------------------
 			---------------3-----------------	10--
 ------7------7------7-------7---------7-----7------7------7--------
 -------------------------------------------------------------------
 -------------------------------------------------------------------
 -------------------------------------------------------------------
 
 1st time: repeat first half of intro with fig below, then same as first 
 	  verse
 
 		------------------------------
 		--10-----(10)/12vvvvvvvvvvvv-- 9--9--14vvvvvvv---
 ---5vvvvvvvvvvvvvvvvvvv---5>7--7vvvvvvvvv----------------------
 ---------------------------------------------------------------
 ---------------------------------------------------------------
 ---------------------------------------------------------------
 ---------------------------------------------------------------
 
 
 D5
 ----------------------7---9--0--9-----------------------10/1210vvvvvvv----
 --12---14--------10----------------/7>10vvvvvvvvvvv----10/1210vvvvvvv----
 -------------9vvv----------------------------------------------------------
 ---------------------------------------------------------------------------
 ---------------------------------------------------------------------------
 ---------------------------------------------------------------------------
 
 
 					A5	   v-- w/ harmonizer set oct. 
 						       down.
 ----0----0---10---0---0---9--0---0--12--14vvvvv-------------------------
 ----------------------------------------14vvvvv-----12/1412/1412vvvv--
 ------------------------------------------------------------------------
 ------------------------------------------------------------------------
 ------------------------------------------------------------------------
 ------------------------------------------------------------------------
 
 
 			D5
 					     V-- harmonizer out.
 ----------------------------------------------------------12---------12--
 ----10/17vvv---14--14------------------14--14vvvv---12>14-----12>14------
 -----------------------14--14--14--14------------------------------------
 -------------------------------------------------------------------------
 -------------------------------------------------------------------------
 -------------------------------------------------------------------------
 
 
 --14vvvvv---14vvvv--15vvvvvv-----
 ---------------------------------
 ---------------------------------
 ---------------------------------
 ---------------------------------
 ---------------------------------
 
 Go back and play chorus, playing Riff A 4 times, and end with riff C
 
 
 Outro;
 
 ----------------------------------------------------------
 --10--------------10---10--10/12vvvv-------75/7vvvvvv----
 ----------------------------------------------------------
 ----------------------------------------------------------
 ----------------------------------------------------------
 ----------------------------------------------------------
 
 
 ------------------------------------------------------------------------------
 -------5vvvvvvvv------7--------------------10-----------10--10--10/12--12vvv--
 ----7---------------7---7vvvvvvvvvvv------------------------------------------
 ------------------------------------------------------------------------------
 ------------------------------------------------------------------------------
 ------------------------------------------------------------------------------
 
 
 ---------------------------------------------------------------------------
 --7/57vvvvvv-----------------------7----------------10-------------10>12--
 ----------------7/9vvvvvvvvvv----7------7-----9>11>9-----9>7--9--7--9------
 ---------------------------------------------------------------------------
 ---------------------------------------------------------------------------
 ---------------------------------------------------------------------------
 
 
 -------------------------------------------------------------------
 ---10---10vvvvvvv----/12vvvvvvvv------------------------12>15>12---
 ---------------------/12vvvvvvvv-------9/14vvvvvvvvvv--------------
 -------------------------------------------------------------------
 -------------------------------------------------------------------
 -------------------------------------------------------------------
 
 
 ----------------------------------------------------------------------------
 ----------------------------------------------------------------------------
 ---117/9vvvvv--------7--7--7vvvvvvvv-------7------7------------------------
 --------------------------------------------7--9---7--9---9>7---------------
 ----------------------------------------------------------------7>9---------
 -----------------------------------------------------------------------10---
 
 
 
 Transcribed by Wolf Marshall
 



Текст, аккорды и табулатура для песни "Hysteria", исполняет "Def Leppard".
Используемые в песне аккорды можно найти в разделе Как брать аккорды. Аккорды для шестиструнной гитары. Другие песни можно найти на нашем сайте, воспользовавшись алфавитным указателем вверху страницы.


Слушать онлайн Hysteria


Def LeppardHysteria на Яндекс.Музыке


 
Ошибка в тексте? Выделите ошибку и нажмите Ctrl+Enter