Date: Wed, 23 Aug 1995 01:07:05 -0400 (EDT)
 From: Gary and Teresa Vander Ploeg 
 Subject: TAB Heat Street, Def Leppard
                       From the bootleg album FIRST STRIKE
             words and music by: Elliot, Clarke, Willis, Savage, Allen
  
 Here's one that is not very common.  The First Strike album was illegally
 Released just after Pyromania.  It was made up of early demo tapes that were
 Remixed.  Leppard secured a court injunction against the album's sale citing
 That the quality was not up to current Leppard standards.  I have it on tape
 From a friend and this is the first track.  It's a cool song, I wish they had
 Done this on an album.  There are also two other otherwise unreleased songs on
 This album:  See The Light, and Glad I'm Alive.
  
 The timing of the riffs is quite syncopated so if you've never heard the song
 Before, you probably won't get it quite right just from this.  If you want the
 Timing, email me and I'll see what I can do.
  
 V = Palm mute
 / = Slide up
  = Slide down
 /B = Bend
 ~ = Vibrato
 ^ = Hammer on/off
        A             C             E             F             G
 0 X-0-------X 0 X---X-0---0 0 X-X-------X 0 X-X-------X 0 --X-0-0-0-X
   | | | | | |   | | | | | |   | | | | | |   | | | | | |   | | | | | |
   -----------   --------1--   -----------   -----------   -----------
   | | | | | |   | | | | | |   | | | | | |   | | | | | |   | | | | | |
   ----1-1-1--   -----------   ----1------   -----------   -----------
 * | | | | | | * | | | | | | * | | | | | | * | | | | | | * | | | | | | *
   -----------   --3--------   -----------   ----1------   2----------
   | | | | | |   | | | | | |   | | | | | |   | | | | | |   | | | | | |
   -----------   -----------   ------3----   -----------   -----------
 * | | | | | | * | | | | | | * | | | | | | * | | | | | | * | | | | | | *
   -----------   -----------   --------4--   ------3----   -----------
   | | | | | |   | | | | | |   | | | | | |   | | | | | |   | | | | | |
   -----------   -----------   -----------   --------4--   -----------
 * | | | | | | * | | | | | | * | | | | | | * | | | | | | * | | | | | | *
  
        D             Bb
 0 X-X-O------ 5 -----------
   | | | | | | * | | | | | | *
   -----------   1-------1-1
   | | | | | |   | | | | | |
   ------1----   ------2----
 * | | | | | | * | | | | | | *
   --------2--   --3-4------
   | | | | | |   | | | | | |
   -----------   -----------
 * | | | | | | * | | | | | | *
  
 RIFF 'A'
    C G  D    D  C G  D    D  C G  D    D  D  
 E---------------------------------------------------------
 B--------------------------------------3--5--6--5-3------- 


Текст, аккорды и табулатура для песни "Heat street", исполняет "Def Leppard".
Используемые в песне аккорды можно найти в разделе Как брать аккорды. Аккорды для шестиструнной гитары. Другие песни можно найти на нашем сайте, воспользовавшись алфавитным указателем вверху страницы.


 
Ошибка в тексте? Выделите ошибку и нажмите Ctrl+Enter