This is a pretty simple song...

this is the intro...

|------------------------------|-----------------0-------|
|------------------------------|--------0---------------0|
|------2---4-------------------|-----4------5--------5---|
|---2------------2-----------3-|------------3------------|
|0---------------------0-------|-------------------------|
|------------------------------|-------------------------|


|------------------------------|----------------0--------|
|------------------------------|--------0----------0-----|
|------2---4-------------------|---4--------5----------5-|
|---2----------2------------3--|------------3------------|
|0-------------------0---------|-------------------------|
|------------------------------|-------------------------|

This keeps until the chorus and then its this...

|5-5-5-5-5-5-5-5-5-5-5-5-----3-|5-5-5-5-5-5-5-5-5-5-5-5------|
|7-7-7-7-7-7-7-7-7-7-7-7--3--5-|7-7-7-7-7-7-7-7-7-7-7-7-5-3-3|
|7-7-7-7-7-7-7-7-7-7-7-7--5--5-|7-7-7-7-7-7-7-7-7-7-7-7-7-5-5|
|-------------------------5----|------------------------7-5-5|
|------------------------------|-----------------------------|
|------------------------------|-----------------------------|
   P.M.  P.M.  P.M.  P.M.         P.M.  P.M.  P.M.  P.M.

|5-5-5-5-5-5-------5-5-5-----3-|-5--7--8--10--11--12--13---15----|
|7-7-7-7-7-7-3-3-3-7-7-7--3--5-|-7--9--10-12--13--14--15---17----|
|7-7-7-7-7-7-5-5-5-7-7-7--5--5-|-7--9--10-12--13--14--15---17----|
|------------5-5-5--------5----|---------------------------------|
|------------------------------|---------------------------------|
|------------------------------|---------------------------------|
  P.M.  P.M.  P.M.  P.M.

DURING THE 13 TO THE 15 THERE IS A PICKING PATTERN.BASICALLY ALL YOU HAVE TO
           15        17
           15        17
DO IS JUST PICK BETWEEN THE 3 STRINGS

THEN WHEN IT SAYS F-F-F-FOOLIN YOU PLAY THIS...

|------------------------1-----|-------------------------1---3---|
|-5-3-5-5-5-5-5-5-5-5-5--3--1--|-5-3-5-5-5-5-5-5-5-5-5---3---5---|
|-7-5-7-7-7-7-7-7-7-7-7--3--3--|-7-5-7-7-7-7-7-7-7-7-7---3---5---|
|-7-5-7-7-7-7-7-7-7-7-7-----3--|-7-5-7-7-7-7-7-7-7-7-7-----------|
|------------------------------|---------------------------------|
|------------------------------|---------------------------------|
        P.M.P.M.P.M.P.M.               P.M.P.M.P.M.P.M.
|------------------------1-----|-----------------------1-3-------|
|-5-3-5-5-5-5-5-5-5-5-5--3--1--|-5-3-5-5-5-5-5-5-5-5-5-3-5-3--5--|
|-7-5-7-7-7-7-7-7-7-7-7--3--3--|-7-5-7-7-7-7-7-7-7-7-7-3-5-5--7--|
|-7-5-7-7-7-7-7-7-7-7-7-----3--|-7-5-7-7-7-7-7-7-7-7-7-----5--7--|
|------------------------------|---------------------------------|
|------------------------------|---------------------------------|
       P.M.P.M.P.M.P.M.                P.M.P.M.P.M.P.M.
After that its the intro.I don't know the solo yet.I,not the intro,tab the song(the chorus).
If you have questions email me,Jon Mallory,at [email protected]


Текст, аккорды и табулатура для песни "Foolin", исполняет "Def Leppard".
Используемые в песне аккорды можно найти в разделе Как брать аккорды. Аккорды для шестиструнной гитары. Другие песни можно найти на нашем сайте, воспользовавшись алфавитным указателем вверху страницы.


 
Ошибка в тексте? Выделите ошибку и нажмите Ctrl+Enter