Def Leppard
Armageddon It- guitar solo
Hysteria/Vault
E-------------------------------------------------------------------
B--------------------------------------------------------------9-9---
G--9-9-9-9---9-8-9-11----9-9---9-9-----9-------------6---6-8-9-9-9---
D----------9----------11-----9-----7-9---6---6---7-----7-------------
A------------------------------------------7---7---------------------
E--------------------------------------------------------------------

E--12p11-0-11p9-0-9p7-0-7p5-0-4-5-4-12-------------------------------
B-----------------------------------12-------------------9---10-10-9-
G-----------------------------------------9----9---11----------------
D----------------------------------------9---9---9----99---9---------
A--------------------------------------------------------------------
E--------------------------------------------------------------------

D-9vvv--

p=pull off
vvv=vibrato
-slide down to or off.


Текст, аккорды и табулатура для песни "Armageddon It", исполняет "Def Leppard".
Используемые в песне аккорды можно найти в разделе Как брать аккорды. Аккорды для шестиструнной гитары. Другие песни можно найти на нашем сайте, воспользовавшись алфавитным указателем вверху страницы.


Слушать онлайн Armageddon It


Def LeppardArmageddon It на Яндекс.Музыке


 
Ошибка в тексте? Выделите ошибку и нажмите Ctrl+Enter