Date: Thu, 13 Nov 1997 15:20:07 -0300 (ADT)
 From: Greencorn Steven R 
 To: [email protected]
 Subject: New Tab
 
           SONG: Another Hit and Run (Elliott, Savage)
         ARTIST: Def Leppard 
             CD: High n' Dry    
         TAB BY: Steven Greencorn ([email protected])      
 
  This is some tablature from my favorite Leppard song:
 
 INTRO Lick: 
 
         Am                       A5
 
 E--------------------------
 B|-------1-------0---------------------
 G-----------|--7------52--------------
 D|---------2--------2/5-|----5--------2------------
 A|---0--------0---------|-------0--------0---------
 E--------------------------
 
 
 
 VERSE RIFF:
 
          A5          C          E5      G5
 
 
 E---------------------------------------
 B-----------------8---------------------
 G|-----2--2--2-|------5----------4--------7--------------2--2--2
 D|-----2--2--2-|------2----------2--------5--------------2--2--2
 A|-----0--0--0-|---0------0--0------0--0------0--0--3v---0--0--0
 E---------------------------------------
 
 
 
 E-------------------------------------------|------
 B--------------8----------------------------|------
 G|-----5--------4----------7---------------2--2--2------|------
 D---2----------5----------3v---2--2--2------|------
 A|--0-----0--0------0--0-------0--0--------0--0--0------|------
 E-------------------------------------------|------
 
 
 
 BRIDGE RIFF:
 
                D       A        G  D           E5
 
 E--------------------------
 B--------------|----8------------------
 G---7-------2--|----7--7--2--|---9-9--9----------
 D---7---7---2--|----5--7--2--|---9-9--9----------
 A---5---5---0--|-------5--0--|---7-7--7----------
 E|---2-----3---------------------------
 
 
 
                                         F5       
 
 E--------------------------------------
 B--------------|----8------------------------------
 G--7-------2---|----7--7----10----(10)-------------
 D--7---7---2---|----5--7----10----(10)-------------
 A--5---5---0---|-------5----8-----(8)--------------
 E|---2-----3---------------------------------------
 
 
 
 CHORUS:
 
 
 E---------------------------------------
 B-------------------------8-------------
 G|--2--2--2------------5------4-------7-----------|---2--2--2---
 D|--2--2--2------------2------2-------5-----------|---2--2--2---
 A|--0--0--0---------0------0-------0------0---3v--|---0--0--0---
 E---------------------------------------
 
 
 
 
 E--------------------------------------------------
 B-------------8--8---------------------------------
 G|------5-------4---------7--7------------2--2--2--------------
 D|------2-------2---------5--5------3v----2--2--2--------------
 A|--0--------0-------0-----------0--------0--0--0--------------
 E--------------------------------------------------
 
 
 
 Now here's how you put it all together:
 
 
 INTRO W/ Lick 
 
 
 
 VERSE W/ VERSE RIFF: 
 
 Union Jack is back with a hole in his head
 He's gettin' badly burned every time
 He's laughin' at me and dancin' on my sneakers
 And his sixties songs are blowin' up my speakers
 
 
 WITH BRIDGE RIFF:
 
 I say you got no respect
 Respect for authority
 You're just playing your dirty tricks
 And then come cryin' to me
 
 
 
 CHORUS RIFF:
 
 Hit and run, hit and run
 It's just a hit and run
 Another hit and run
 
 
 Verse: 
 
 The bulldog lost his bite and his breath has gone bad
 And the whole damn world is really laughin' mad
 
 
 Repeat Bridge
 
 Repeat Chorus
 
 
 INTRO:
 
 Oh bring it down
 Oh you bring it down
 
 I say you ain't got no respect
 I say you ain't got no respect
 No you ain't got no respect
 And you hit me when I'm down
 
 
 REPEAT CHORUS RIFF:
 
 Hit and run, hit and run
 It's just another hit and run
 I said it's just another hit and run
 
 Oh yeah, hit and run
 Oh yeah, hit and run
 Oh yeah, hit and run
 Oh yeah, hit and run
 Oh yeah, hit and run
 It's just another hit and run
 Hit and run
 
                                                FIN



Текст, аккорды и табулатура для песни "Another hit and run", исполняет "Def Leppard".
Используемые в песне аккорды можно найти в разделе Как брать аккорды. Аккорды для шестиструнной гитары. Другие песни можно найти на нашем сайте, воспользовавшись алфавитным указателем вверху страницы.


Слушать онлайн Another Hit and Run


Def LeppardAnother Hit and Run на Яндекс.Музыке


 
Ошибка в тексте? Выделите ошибку и нажмите Ctrl+Enter