Подбирал конечно не я, это с Deeppurple.com
 Я думаю вы будете большого мнения о себе, если научитесь играть это      
      From "Machine Head", 1972
      Intro, Rythm & Solo
Intro

------------------|------------------|------------------|--------------------|
------------------|------------------|------------------|--------------------|
------------------|------------------|------------------|--1-----------------|
------------------|------------------|------------------|----3---------------|
------------------|------------------|------------------|--------------------|
------------------|------------------|------------------|--------------------|

------------------|----------------------|-----------------------|
------------------|----------------------|-----------------------|
------------------|----------------------|-----------------------|
------------------|------------------1-2/|--3----------------1-2/|
------------------|---------------3------|----------------3------|
------------------|----------------------|-----------------------|


---------------------|--------------------------------|------------------|
---------------------|-----------------------------4b-|------------------|
---------------------|-----1---3-1-----1----3-1-------|------------------|
--3----------------2/|--3----3-----3-1---3------3-----|------------------|
---------------------|--------------------------------|------------------|
---------------------|--------------------------------|------------------|


------------------1---------------|--------------------|
--4b-4-1-4--1---1---1-------------|--------------------|
--------------4-------4-3-1---3---|--1-----------------|
----------------------------3---3-|-----3--------------|
----------------------------------|--------------------|
----------------------------------|--------------------|


----------4--6/7---4--6-----|-------4-6--7-6-4---6---4-----|
-------6---------6------6---|-----6------------6---6-----7/|
-----5----------------------|------------------------------|
----------------------------|------------------------------|
----------------------------|------------------------------|
----------------------------|------------------------------|


-----8b---9--8--6--8-----|----4b---4--1-4--------|--------------|
---6-----------------6---|-----------------4r----|--------------|
-------------------------|-----------------------|--------------|
-------------------------|-----------------------|--------------|
-------------------------|-----------------------|--------------|
-------------------------|-----------------------|--------------|

Rythm

...

------------------------------------------|------------------|
------------------------------------------|------------------|
------------------------------------------|------------------|
------------------------------------------|------------------|
------------------------------------------|------------------|
--------13-12-11-10-9-8-7-6-5-4-3-1--1----|------------------|


-------------8-----|------------------|------------------|------------------|
-------------8-----|------------------|------------------|------------------|
-------------------|------------------|------------------|------------------|
-------------------|------------------|------------------|------------------|
-------------------|------------------|------------------|------------------|
-------------------|------------------|------------------|------------------|

...

------------------|------------------|-------------------------|
------------------|------------------|-------------------------|
------------------|------------------|-----1---3-1-----1---3-1-|
------------------|------------------|--3----3-----3-1---3-----|
------------------|------------------|-------------------------|
------------------|------------------|-------------------------|


--------------------|------------------------------------|--------------------|
-----4b-------------|--6--4h6h4---4--------6-------------|-----4b-------------|
--------------------|-----------5----5-4h5---5-4-3-1-----|--------------------|
--3-----------------|--------------------------------3-1-|--3-----------------|
--------------------|------------------------------------|--------------------|
--------------------|------------------------------------|--------------------|


-------------------------------|---------------------------------|
-------------------------------|---------------------------------|
-------------------------------|---------------------------------|
-----1---3-1-----1---3-1-------|----------------------1----------|
--3----3-----2-3---3-----3---2/|--3--2-1-2--1---1-2/3---3-1---1--|
-------------------------------|--------------4-------------4----|


----------------------------|----------------------------|
----------------------------|----------------------------|
----------------------------|----------------------------|
-----3--1--3------3--1--3---|-----3--1--3------3--1--3---|
-------------3------------3-|-------------3------------3-|
--1------------1------------|--1------------1------------|


----------------------------|----------------------------|--------------------|
----------------------------|----------------------------|--------------------|
-----3---1--------3---1--3--|----------------------------|--1--------0--------|
-------3----3-------3-------|-----3---1--3-----3---1--3--|--------------------|
--1------------1------------|-------3------------3-------|--------------------|
----------------------------|--1------------1------------|--------------------|


-------------------------|----------------------------|
-------------------4-----|----------------------------|
-------------------3-----|----------------------------|
-----3---1--3--3---2-----|-----3---1--3-----3---1-----|
-------3-----------3-----|-------3------------3----3--|
--1----------------------|--1------------1------------|


----------------------------|----------------------------|
----------------------------|----------------------------|
----------------------------|-----3---1--------3---1--3--|
-----3---1--3-----3---1--3--|-------3----3-------3-------|
-------3------------3-------|--1------------1------------|
--1------------1------------|----------------------------|


----------------------------|--------------------|-------------------------|
----------------------------|--------------------|-------------------4-----|
----------------------------|--1--------0--------|-------------------3-----|
-----3---1--3-----3---1--3--|--------------------|-----3---1--3--3---2-----|
-------3------------3-------|--------------------|-------3-----------3-----|
--1------------1------------|--------------------|--1----------------------|


----------------------------|----------------------------|
----------------------------|----------------------------|
----------------------------|----------------------------|
-----3---1--3-----3---1-----|-----3---1--3-----3---1--3--|
-------3------------3----3--|-------3------------3-------|
--1------------1------------|--1------------1------------|


----------------------------|----------------------------|--------------------|
----------------------------|----------------------------|--------------------|
-----3---1--------3---1--3--|----------------------------|--1--------0--------|
-------3----3-------3-------|-----3---1--3-----3---1--3--|--------------------|
--1------------1------------|-------3------------3-------|--------------------|
----------------------------|--1------------1------------|--------------------|


--------------------|-------------------------|--------------------|
--------------4-----|-------------------------|-----4b-------------|
--------------3-----|-----1---3-1-----1---3-1-|--------------------|
--3-----------2-----|--3----3-----3-1---3-----|--3-----------------|
--------------3-----|-------------------------|--------------------|
--------------------|-------------------------|--------------------|


------------------------------------|--------------------|
--6--4h6h4---4--------6-------------|-----4b-------------|
-----------5----5-4h5---5-4-3-1-----|--------------------|
--------------------------------3-1-|--3-----------------|
------------------------------------|--------------------|
------------------------------------|--------------------|


-------------------------------|---------------------------------|
-------------------------------|---------------------------------|
-------------------------------|---------------------------------|
-----1---3-1-----1---3-1-------|----------------------1----------|
--3----3-----2-3---3-----3---2/|--3--2-1-2--1---1-2/3---3-1---1--|
-------------------------------|--------------4-------------4----|


----------------------------|----------------------------|
----------------------------|----------------------------|
----------------------------|----------------------------|
-----3--1--3------3--1--3---|-----3--1--3------3--1--3---|
-------------3------------3-|-------------3------------3-|
--1------------1------------|--1------------1------------|


----------------------------|----------------------------|--------------------|
----------------------------|----------------------------|--------------------|
-----3---1--------3---1--3--|----------------------------|--1--------0--------|
-------3----3-------3-------|-----3---1--3-----3---1--3--|--------------------|
--1------------1------------|-------3------------3-------|--------------------|
----------------------------|--1------------1------------|--------------------|


-------------------------|----------------------------|
-------------------4-----|----------------------------|
-------------------3-----|----------------------------|
-----3---1--3--3---2-----|-----3--1--3------3--1--3---|
-------3-----------3-----|-------------3------------3-|
--1----------------------|--1------------1------------|


----------------------------|----------------------------|
----------------------------|----------------------------|
----------------------------|-----3---1--------3---1--3--|
-----3--1--3------3--1--3---|-------3----3-------3-------|
-------------3------------3-|--1------------1------------|
--1------------1------------|----------------------------|


----------------------------|--------------------|-------------------------|
----------------------------|--------------------|-------------------4-----|
----------------------------|--1--------0--------|-------------------3-----|
-----3---1--3-----3---1--3--|--------------------|-----3---1--3--3---2-----|
-------3------------3-------|--------------------|-------3-----------3-----|
--1------------1------------|--------------------|--1----------------------|


----------------------------|----------------------------|
----------------------------|----------------------------|
----------------------------|----------------------------|
-----3--1--3------3--1--3---|-----3--1--3------3--1--3---|
-------------3------------3-|-------------3------------3-|
--1------------1------------|--1------------1------------|


----------------------------|----------------------------|--------------------|
----------------------------|----------------------------|--------------------|
-----3---1--------3---1--3--|----------------------------|--1--------0--------|
-------3----3-------3-------|-----3---1--3-----3---1--3--|--------------------|
--1------------1------------|-------3------------3-------|--------------------|
----------------------------|--1------------1------------|--------------------|


--------------------|-------------------------|--------------------|
--------------4-----|-------------------------|-----4b-------------|
--------------3-----|-----1---3-1-----1---3-1-|--------------------|
--3-----------2-----|--3----3-----3-1---3-----|--3-----------------|
--------------3-----|-------------------------|--------------------|
--------------------|-------------------------|--------------------|


------------------------------------|--------------------|
--6--4h6h4---4--------6-------------|-----4b-------------|
-----------5----5-4h5---5-4-3-1-----|--------------------|
--------------------------------3-1-|--3-----------------|
------------------------------------|--------------------|
------------------------------------|--------------------|


-------------------------------|----------------------------------|
-------------------------------|----------------------------------|
-------------------------------|----------------------------------|
-----1---3-1-----1---3-1-------|----------------------1-----------|
--3----3-----2-3---3-----3---2/|--3--2-1-2--1---1-2/3---3-1---1-3/|
-------------------------------|--------------4-------------4-----|


---------------------------------|-----------------------|
---------------------------------|-----------------------|
---------------------------------|-----------------------|
----------------------3----------|-----5---3--5----------|
--5--4-3-4--3-1-3-4/5---5-3-1-3--|--5----5---------------|
---------------------------------|-----------------------|


------------------------|----------------------|------------------------|
------------------------|----------------------|------------------------|
----5b---5--3-----------|----------------------|-----------3------------|
---------------5-3-5----|----------------------|-------------5--5-5-----|
------------------------|----3----3----3----3--|------------------------|
------------------------|----x----x----x----x--|--3---------------------|


--------------------|-----------------------|-----------------------|
--------------------|-----------------6-----|-----------------------|
--3--------2--------|-----------------5-----|----------3------------|
--------------------|----5---3--5-----4-----|------------5--5-5-----|
--------------------|------5----------5-----|-----------------------|
--------------------|-----------------------|-----------------------|


---------------------------|---------------------------|
---------------------------|---------------------------|
--------------3------------|--------------3------------|
----5---3--5----5--5-5-----|----5---3--5----5--3-5-----|
------5--------------------|------3--------------------|
---------------------------|---------------------------|


--------------------------|--------------------|---------------------------|
--------------------------|--------------------|---------------------------|
--------------------------|--3--------2--------|---------------------------|
----5---3--5----5---3--5--|--------------------|-----5---3--5----5---3-----|
------5-----------5-------|--------------------|-------5-----------5----5--|
--------------------------|--------------------|--3------------------------|


----------------------------|----------------------------|
----------------------------|----------------------------|
-----------------3----------|-----------------3----------|
-----5---3--5--------3------|-----5---3--5--------3------|
-------5-----------5---3-1--|-------5-----------5---5-1--|
--3-------------------------|--3-------------------------|


-----------------------------|---------------------------|--------------------|
-----------------------------|---------------------------|--------------------|
------------------3----------|---------------3-----------|--3--------2--------|
-----5---3--5---------3------|-----5---3--5----5-3-5-----|--------------------|
--3----3-------3----5---3-5--|-------5-------------------|--------------------|
-----------------------------|--3------------------------|--------------------|


--------------------|----6--------------------|--------------------------|
--------------6-----|----8--------------------|--------------------------|
--0-----------5-----|----7--------------------|--------------------------|
--------------4-----|-----------5--5----5-----|----5--------5----5--5----|
--------------5-----|-----------x--x----x-----|----x--------x----x--x----|
--------------------|-----------x--x----x-----|----x--------x----x--x----|


----------------------|--------------------------|---------------------|
----------------------|--------------------------|---------------------|
----3-------3---------|--3--3--------------------|--3--------2----3----|
----5-------5---------|--5--5--------5-----5-----|---------------------|
----x-------x---------|--------------x-----x-----|---------------------|
----x-------x---------|--------------x-----x-----|---------------------|


---------------------|------------------------|----------------------------|
---------------------|------------------------|----------------------------|
---------------------|----------------3-------|---------------3------------|
--5------------------|----5---3--5-------5----|-----5---3--5-----5---3--5--|
-------5-------------|------5-----------------|-------5------------5-------|
------------3--------|------------------------|--3-------------------------|


---------------------------|--------------------------|--------------------|
---------------------------|--------------------------|--------------------|
---------------------------|--------------3-----------|--3--------2--------|
-----5---3--5----5---3--5--|----5---3--5----5-3-5-----|--------------------|
--3----3-----------3-------|------5-------------------|--------------------|
---------------------------|--------------------------|--------------------|


-----------------------|----------------------------|
-----------------6-----|----------------------------|
----0------------5-----|----------------------------|
--------3--5-----4-----|-----5---3--5-----5---3--5--|
------5----------5-----|-------3------------3-------|
-----------------------|--3------------3------------|


----------------------------|----------------------------|
----------------------------|----------------------------|
----------------------------|----------------------------|
-----5---3--5-----5---3--5--|-----5---3--5-----5---3--5--|
-------3------------3-------|-------3------------3-------|
--3------------3------------|--3------------3------------|


---------------------------|--------------------|--------------------|
---------------------------|--------------------|--------------------|
---------------3-----------|--3--------2--------|--------------------|
-----5---3--5----5-3-5-----|--------------------|--5--------3--------|
-------5-------------------|--------------------|--------------------|
--3------------------------|--------------------|--------------------|


-------------------------------|-------------------|
----------------------------8b-|----8b-8b-8b-8b-8b-|
-----5---7-5-----5---7-5-------|-------------------|
--7----7-----7-5---7-----7-----|-------------------|
-------------------------------|-------------------|
-------------------------------|-------------------|


---------------------------------------|----------------------|
--10--8h10h8---8--------10-------------|-----8b-----8b---8b---|
-------------9----9-8h9----9-8-7-5-----|----------------------|
-----------------------------------7-5-|--7-------------------|
---------------------------------------|----------------------|
---------------------------------------|----------------------|


------------------------------|--------------------------|
------------------------------|--------------------------|
------------------------------|--------------------------|
-----5---7-5-----5---7-5------|--------------------------|
--7----7-----6/7---7-----7----|--------------0--1--2--3--|
------------------------------|--0--1--2--3--------------|


------------------------------|-----------------------------|
------------------------------|-----------------------------|
-----5---7-5------------------|---------5-------------------|
-------7-----7-5-7--7---5--7--|-----7-5---7-5--7--7---5--7--|
----------------------5-------|--0------------------5-------|
--5---------------------------|-----------------------------|


------------------------------|----------------------------|
------------------------------|----------------------------|
-----7---5--------5---7-5-----|----------------------------|
-------7----7-------7-----7-5-|-----7---5--7-----7---5-----|
--5------------5--------------|-------7------------7----7--|
------------------------------|--5------------5------------|


--------------------|----------------------------|----------------------------|
--------------------|----------------------------|----------------------------|
--5--------4--------|----------------------------|----------------------------|
--------------------|-----7---5--7-----7---5--7--|-----7---5--7-----7---5--7--|
--------------------|-------5------------5-------|-------5------------5-------|
--------------------|--5------------5------------|--5------------5------------|


----------------------------|----------------------------|--------------------|
----------------------------|----------------------------|--------------------|
------------------7----5----|----------------------------|--5--------4--------|
-----7---5--7-------7-----7-|-----7---5--7-----7---5--7--|--------------------|
--5----5-------5------------|-------5------------5-------|--------------------|
----------------------------|--5------------5------------|--------------------|


--------------------|----------------------------|----------------------------|
--------------8-----|----------------------------|----------------------------|
--------------7-----|----------------------------|---------------5------------|
--7-----------6-----|-----7---5--7-----7---5--7--|-----7---5--7----7-5-7---5--|
--------------7-----|-------5------------5-------|-------5--------------------|
--------------------|--5------------5------------|--5-------------------------|


----------------------------|----------------------------|--------------------|
----------------------------|----------------------------|--------------------|
----------------------------|----------------------------|--5--------4--------|
-----7---5--7-----7---5--7--|-----7---5--7-----7---5--7--|--------------------|
-------5------------5-------|-------5------------5-------|--------------------|
--5------------5------------|--5------------5------------|--------------------|


------------------------------|--------------------|
------------------------------|--------------------|
------------------------------|--5--------4--------|
-----7---5--7---7-5---7----5--|--------------------|
-------5------5-----7----7----|--------------------|
--5---------------------------|--------------------|


-------------------------------------|--------------------|------------------|
-------------------------------------|--------------------|------------------|
-------------------------------------|--5--------4--------|------------------|
--7--5--4----------------------------|--------------------|------------------|
-----------7--6--5--4--3-----------5-|--------------------|------------------|
--------------------------5--3--0----|--------------------|------------------|

 
Solo

...

-------------------------|--------------------|
-------------------------|-----4b-------------|
-----1---3-1-----1---3-1-|--------------------|
--3----3-----3-1---3-----|--3-----------------|
-------------------------|--------------------|
-------------------------|--------------------|


------------------------------------|--------------------|
--6--4h6h4---4--------6-------------|-----4b-------------|
-----------5----5-4h5---5-4-3-1-----|--------------------|
--------------------------------3-1-|--3-----------------|
------------------------------------|--------------------|
------------------------------------|--------------------|


-------------------------------|---------------------------------|
-------------------------------|---------------------------------|
-------------------------------|---------------------------------|
-----1---3-1-----1---3-1-------|----------------------1----------|
--3----3-----2-3---3-----3---2/|--3--2-1-2--1---1-2/3---3-1---1--|
-------------------------------|--------------4-------------4----|


----------------------|----------------------------------1-|
----------------------|--------------------------------1---|
--3b-3b-----3b-3b-----|--3-4-3-1----1---3-1---1------3b----|
----------------------|----------3----3-----3--------------|
----------------------|------------------------------------|
----------------------|------------------------------------|


-----------------------------8b---|--8-6h5h4---6-4h6h4---------------|
--4-1----------------4/6---6------|----------6-----------4-6--6----6-|
------4-3-1---3---1------7--------|--------------------5-------------|
------------3---3-----------------|----------------------------------|
----------------------------------|----------------------------------|
----------------------------------|----------------------------------|


----------------------------------4---|--4-6b--6-4----4-6----------|
--6-4---4-6-6-4---4-6-6-4---4-6-----6-|------------6-------------5/|
------5---------5---------5-----------|--------------------3b------|
--------------------------------------|----------------------------|
--------------------------------------|----------------------------|
--------------------------------------|----------------------------|


-----4--6--7h6h4-6--4--7--6--5/|--4-6--7--6----4-4h6h7h4---4-4h6h7h4---|
--6----------------------------|-------------6-----------6-----------6-|
-------------------------------|---------------------------------------|
-------------------------------|---------------------------------------|
-------------------------------|---------------------------------------|
-------------------------------|---------------------------------------|


--4-4h6h7h4---4-4h6h7h4-------6-4-----------|
------------6-----------6---6-----6-4-1-----|
----------------------------------------3-1-|
--------------------------------------------|
--------------------------------------------|
--------------------------------------------|


-----------------------------------1-|---------------------------------|
---------------------------------1---|--4--1-----------------------1---|
--1/3-1---3-1-----1---3-1---1--3b----|-------4-3-1-----1-3--1/3------3-|
--------3-----3-1---3-----3----------|--------------3------------3-----|
-------------------------------------|---------------------------------|
-------------------------------------|---------------------------------|


-----------------------------------|-----------------------------------------|
-----------------------------------|--1---------1---------1---------1--------|
--1---3---3-1---1---3-1----------3-|----3-1---3b--3-1---3b--3-1---3b--3-1----|
----3---3-----3---3-----3-1--------|--------3---------3---------3---------3--|
----------------------------3------|-----------------------------------------|
-----------------------------------|-----------------------------------------|


--------------------------------------------------|
--------------------------------------------------|
------3-6-5-3-5-4-3-----------3-6-5-3-5-4-3-------|
--5-6---------------6-5-3-5-6---------------6-5-3-|
--------------------------------------------------|
--------------------------------------------------|


--------------------------------------------------|
--------------------------------------------------|
------3-6-5-3-5-4-3-6-5-3-5-4-3-6-5-3-5-4-3-6-5-3-|
--5-6---------------------------------------------|
--------------------------------------------------|
--------------------------------------------------|


------------------------------------------|
--4---------------------------------------|
-----3-6-5-3-5-4-3-----------3-6-5-3-5----|
-------------------6-5-3-5-6--------------|
------------------------------------------|
------------------------------------------|


---------------------------------------|----------------------------|
---------------------------------------|----------------------------|
--5--3-----------3-5-3---------3--5----|--3-4b-4b-4b-3-1-3-1--3b----|
-------6-5-3-5-6-------6-5--6----------|----------------------------|
---------------------------------------|----------------------------|
---------------------------------------|----------------------------|


-------------------------|--------------------|
-------------------------|-----4b-------------|
-----1---3-1-----1---3-1-|--------------------|
--3----3-----3-1---3-----|--3-----------------|
-------------------------|--------------------|
-------------------------|--------------------|


------------------------------------|--------------------|
--6--4h6h4---4--------6-------------|-----4b-------------|
-----------5----5-4h5---5-4-3-1-----|--------------------|
--------------------------------3-1-|--3-----------------|
------------------------------------|--------------------|
------------------------------------|--------------------|


-------------------------------|---------------------------------|
-------------------------------|---------------------------------|
-------------------------------|---------------------------------|
-----1---3-1-----1---3-1-------|----------------------1----------|
--3----3-----2-3---3-----3---2/|--3--2-1-2--1---1-2/3---3-1---1--|
-------------------------------|--------------4-------------4----|

...

------------------|------------------|-------------------------|
------------------|------------------|-------------------------|
------------------|------------------|-----1---3-1-----1---3-1-|
------------------|------------------|--3----3-----3-1---3-----|
------------------|------------------|-------------------------|
------------------|------------------|-------------------------|


--------------------|------------------------------------|--------------------|
-----4b-------------|--6--4h6h4---4--------6-------------|-----4b-------------|
--------------------|-----------5----5-4h5---5-4-3-1-----|--------------------|
--3-----------------|--------------------------------3-1-|--3-----------------|
--------------------|------------------------------------|--------------------|
--------------------|------------------------------------|--------------------|


-------------------------------|----------------------------------|
-------------------------------|----------------------------------|
-------------------------------|----------------------------------|
-----1---3-1-----1---3-1-------|----------------------1-----------|
--3----3-----2-3---3-----3---2/|--3--2-1-2--1---1-2/3---3-1---1-3/|
-------------------------------|--------------4-------------4-----|


---------------------------------|------------------|------------------|
---------------------------------|------------------|------------------|
---------------------------------|------------------|------------------|
----------------------3----------|------------------|------------------|
--5--4-3-4--3-1-3-4/5---5-3-1-3--|------------------|------------------|
---------------------------------|------------------|------------------|

...


------------------|----------------13-------|--------------------------------|


Текст, аккорды и табулатура для песни "Lasy", исполняет "Deep Purple".
Используемые в песне аккорды можно найти в разделе Как брать аккорды. Аккорды для шестиструнной гитары. Другие песни можно найти на нашем сайте, воспользовавшись алфавитным указателем вверху страницы.


Слушать онлайн Lazy


Deep PurpleLazy на Яндекс.Музыке


 
Ошибка в тексте? Выделите ошибку и нажмите Ctrl+Enter