Notation

  (1)
|--7^--|  = bend (one whole step
         = slide down
  /       = slide up
~~~~~~~   = tremolo

Intro

        G5          Fsus2          C            Fsus2
E|| -------------|-----1--------- ||
B|| ----3------|------1------|-----1-------|------1------ ||
G|| ----0------|------0------|-----0-------|------0------ ||
D|| ----5------|------3--------|------3------ ||
A|| ----------------- ||
E|| ----------------- ||


        G5          Fsus2          G5
E|| ---------------|------3------ ||
B|| ----3------|------1------|-----1-------|------0------ ||
G|| ----0------|------0------|-----0-------|------0------ ||
D|| ----5------|------3--------|------5------ ||
A|| ---------------|------5------ ||
E|| ----------------- ||


E|| ------------------------------------------------------- ||
B|| ------------------------------------------------------- ||
G|| ------------------------------------------------------- ||
D|| ------------------------------------------------------- ||
A|| -5---5---5---5---5---5---5---5---|-5---5---5---5---5---5---5---5--- ||
E|| -3---3---3---3---3---3---3---3---|-3---3---3---3---3---3---3---3--- ||


E|| ------------------------------------------------------- ||
B|| ------------------------------------------------------- ||
G|| ------------------------------------------------------- ||
D|| ------------------------------------------------------- ||
A|| -5---5---5---5---5---5---5---5---|-5---5---5---5---5---5---5---5--- ||
E|| -3---3---3---3---3---3---3---3---|-3---3---3---3---3---3---3---3--- ||


E|| ------------------------------------------------------- ||
B|| ------------------------------------------------------- ||
G|| ---3-------0---3--------0---3----|---3--------0---3--------0---5--- ||
D|| ---3-------0---3--------0---3----|---3--------0---3--------0---5--- ||
A|| ------------------------------------------------------- ||
E|| ------------------------------------------------------- ||


E|| ------------------------------------------------------- ||
B|| ------------------------------------------------------- ||
G|| ---3-------0---3--------0---3----|---3--------0---3--------0---5--- ||
D|| ---3-------0---3--------0---3----|---3--------0---3--------0---5--- ||
A|| ------------------------------------------------------- ||
E|| ------------------------------------------------------- ||


E|| ------------------------------------------------------- ||
B|| ------------------------------------------------------- ||
G|| ---3-----0---3---------0---3-----|---0---3------0---3------5---0--- ||
D|| ---3-----0---3---------0---3-----|---0---3------0---3------5---0--- ||
A|| ------------------------------------------------------- ||
E|| ------------------------------------------------------- ||


E|| ------------------------------------------------------- ||
B|| ------------------------------------------------------- ||
G|| ---3---3---3---0---0---0---0--0--|--3---3---3---0---0---0---0---0-- ||
D|| ---3---3---3---0---0---0---0--0--|--3---3---3---0---0---0---0---0-- ||
A|| ------------------------------------------------------- ||
E|| ------------------------------------------------------- ||


E|| ------------------------------------------------------- ||
B|| ------------------------------------------------------- ||
G|| ---3-----0---3--------0---3------|---0---3-----0---3---3---3---5--- ||
D|| ---2-----0---0--------0---3------|---0---3-----0---3---3---3---5--- ||
A|| ------------------------------------------------------- ||
E|| ------------------------------------------------------- ||


                                          C       Bb
E|| ------------------------------------------ ||
B|| ---------------------------------|----5--------3------ ||
G|| ---3------0------3------0--------|----5--------3------ ||
D|| ---3------0------3------0--------|----5--------3------ ||
A|| ---------------------------------|----3--------1------ ||
E|| ------------------------------------------ ||


Verses 1 & 2

    1.      No   -body      gonna      take      my     car,       I´m
    2.      No   -body      gonna      take      my     girl,      I´m
E|| ------------------------------------------------------- ||
B|| ------------------------------------------------------- ||
G|| ------------------------------------------------------- ||
D|| ------------------------------------------------------- ||
A|| ---------5---5---5---5---5---5---|-5---5---5---5---5---5---5---5--- ||
E|| --1 / 3--3---3---3---3---3---3---|-3---3---3---3---3---3---3---3--- ||


  gonna   race   it   to  the   ground.
  gonna   keep   her  to  the   end.
E|| ------------------------------------------------------- ||
B|| ------------------------------------------------------- ||
G|| ---------------------------------|--3-----------5------------3----- ||
D|| ---------------------------------|--3-----------5------------3----- ||
A|| -5---5---5---5---5---5---5---5------------------------- ||
E|| -3---3---3---3---3---3---3---3---|--------3------------3----------- ||


        A  -  No  -  body    gonna    beat    my     car,   It´s   gonna
        A  -  No  -  body    gonna    have    my    girl,   She   stays
E|| ------------------------------------------------------- ||
B|| ------------------------------------------------------- ||
G|| ---------------------------------------5-------5------- ||
D|| ---------------------------------------5-------5------- ||
A|| -5---5---5---5---5---5---5---5---|-5---5---5---5------------------- ||
E|| -3---3---3---3---3---3---3---3---|-3---3---3---3-------3-------3--- ||


     break   the   speed   of         sound.
     close     on    ev  -  ´ry       bend.
E|| ------------------------------------------------------- ||
B|| ------------------------------------------------------- ||
G|| ---------------------------------|--3-----------5------------3----- ||
D|| ---------------------------------|--3-----------5------------3----- ||
A|| -5---5---5---5---5---5---5---5------------------------- ||
E|| -3---3---3---3---3---3---3---3---|--------3------------3----------- ||


            Ooh,             It´s  a  killin´  machine.
            Ooh,            She´s  a  killin´  machine.
E|| ------------------------------------------------------- ||
B|| ------------------------------------------------------- ||
G|| ------------------------------------------------------- ||
D|| ------------------------------------------------------- ||
A|| ---------3---3---3---3---3---3---|--3---3---3---3---3---3---3---3-- ||
E|| ---1-----1---1---1---1---1---1---|--1---1---1---1---1---1---1---1-- ||


     It´s  got a - ev - ´ry  thing,
     She´s got a - ev - ´ry  thing,
E|| ------------------------------------------------------- ||
B|| ------------------------------------------------------- ||
G|| ------------------------------------------------------- ||
D|| ----------------------------------2------1------0------ ||
A|| --3---3---3---3---3---3---3------|--3---------3------2------1------ ||
E|| --1---1---1---1---1---1----------|-------3------------------------- ||


                    like    a    drivin´   power,
                    like    a    movin´    mouth,
             D               Dsus4             D
E|| ---------2-----------------3-----|---------2----------------------- ||
B|| ---------3-----------------3-----|---------3----------------------- ||
G|| ---------2----------2------2-----|---------2----------------------- ||
D|| ----0---------------0------------|---------0----------------------- ||
A|| ------------------------------------------------------- ||
E|| ------------------------------------------------------- ||


        big   fat   tires  and   ev  -  ´ry  thing.
        body     control   and   ev  -  ´ry  thing.
             D               Dsus4             D
E|| ---------2-----------------3-----|---------2----------------------- ||
B|| ---------3-----------------3-----|---------3----------------------- ||
G|| ---------2----------2------2-----|---------2----------------------- ||
D|| ----0---------------0------------|---------0-------------7--------- ||
A|| ---------------------------------------------0--------- ||
E|| ------------------------------------------------------- ||


           I  love  it                      and  I  need  it!
           I  love  her                     and  I  need  her!
E|| ------------------------------------------------------- ||
B|| ------------------------------------------------------- ||
G|| ----------------------------5--------------------5----- ||
D|| --------7---7---7---7---7---5----|-------7---7---7---7---7---5----- ||
A|| ----0---0---0---0---0---0--------|-------0---0---0---0---0--------- ||
E|| ----0-------------------------------------------------- ||


       I  bleed  it!
       I  seed  her!
E|| ------------------------------------------------------- ||
B|| ------------------------------------------------------- ||
G|| ---------------------------5-----|---------5-----------------5----- ||
D|| -----7---7---7---7---7-----5-----|-----7---5------------7----5----- ||
A|| -----0---0---0---0---0-----------|-----0----------------0---------- ||
E|| ------------------------------------------------------- ||


            Yeah,  it´s  a  wild     hurricane!
            Yeah,  she  turns  me    on!                          C
E|| --------------------------------------------------8---- ||
B|| --------------------------------------------------8---- ||
G|| ---5------------------------5---------------------9---- ||
D|| ---5----7---7---7---7---7---5----|-------7---7---7---7--------10--- ||
A|| --------0---0---0---0---0--------|-------0---0---0---0---0----10--- ||
E|| --------------------------------------------------8---- ||


  Al   -   right,           hold           tight,              I´m
             D                C               D                 C
E|| --------------------------8---------------------8------ ||
B|| ---------7----------------8------|--------7-----------------8------ ||
G|| ---------7----------------9------|--------7-----------------9------ ||
D|| ---------7----------------10-----|--------7-----------------10----- ||
A|| -----0---5----------------10-----|----0---5-----------------10----- ||
E|| --------------------------8---------------------8------ ||


                  a             high      -     way        star!
        C          D            F               Gm             A
E|| ----8----------------------------|----------10-------------12------ ||
B|| ----8----------7------------10---|----------11-------------14------ ||
G|| ----9----------7------------10---|----------12-------------14------ ||
D|| ----10---------7------------10---|----------12-------------14------ ||
A|| ----10----0----5-------0----8----|----------10-------------12------ ||
E|| ----8-------------------------------------------------- ||



E|| --------------------------------------------12- ------ ||
B|| --------------------------------------------14- ------ ||
G|| --------------------------------------------14- ------ ||
D|| ------------------------------------------------------- ||
A|| ------------------------------------------------------- ||
E|| ------------------------------------------------------- ||


                                           C           Bb
E|| ------------------------------------------------------- ||
B|| ---------------------------------|-----5------------3-------------- ||
G|| ---------------------------------|-----5------------3-------------- ||
D|| ------7--------------------------|-----5------------3-------------- ||
A|| ------0--------------------------|-----3------------1-------------- ||
E|| ------------------------------------------------------- ||



E|| ------------------------------------------------------- ||
B|| ------------------------------------------------------- ||
G|| ------------------------------------------------------- ||
D|| ------7------------------------------------------------ ||
A|| ------0-----------------------------------0------------ ||
E|| ------------------------------------------------------- ||


Organ solo begins


Repeat 8x
E|| ------------------------------------------------------- ||
B|| ------------------------------------------------------- ||
G|| ------------------------------------------------------- ||
D|| ------------------------------------------------------- ||
A|| ----5----5---5---5---5---5---5---|-5---5---5---5---5---5---5--5--5- ||
E|| ------------------------------------------------------- ||


Then the following chords:

Measure 1:   8 x Am
Measure 2:   8 x EG#
Measure 3:   8 x Gm
Measure 4:   8 x DF#


E|| ------------------------------------------------------- ||
B|| ------------------------------------------------------- ||
G|| ------------------------------------------------------- ||
D|| ------------------------------------------------------- ||
A|| ------------------------------------------------------- ||
E|| --1---1---0---1---1---1---0---1--|--1---1---1---1---1---1---0---0-- ||


E|| ------------------------------------------------------- ||
B|| ------------------------------------------------------- ||
G|| ------------------------------------------------------- ||
D|| ------------------------------------------------------- ||
A|| --5---5---5---0---5---5------0---|--5---5---5---0---5---5---5---5-- ||
E|| ------------------------------------------------------- ||


E|| ------------------------------------------------------- ||
B|| ------------------------------------------------------- ||
G|| ------------------------------------------------------- ||
D|| -------------5----7----5----7------5----7----5----7---- ||
A|| ---0-----7------------------0----|---------7------------------0---- ||
E|| ------------------------------------------------------- ||


                                         (.25)
E|| ------------------------------------------------------- ||
B|| ------------------------------------------------------- ||
G|| ----------------------------5----|----5^--------------------------- ||
D|| --------7----5----7----5---------|--------7---5---7--------5---7--- ||
A|| -------------------------------------------0----------- ||
E|| ------------------------------------------------------- ||


E|| ------------------------------------------------------- ||
B|| ------------------------------------------------------- ||
G|| ------------------------------------------------------- ||
D|| -7-----7-----5---7------5--8-----|------7------5---7------5---7---- ||
A|| -0----------------------------0------------------------ ||
E|| ------------------------------------------------------- ||


E|| ------------------------------------------------------- ||
B|| ------------------------------------------------------- ||
G|| ------------------------------------------------------- ||
D|| ------------------------------------------------------- ||
A|| ----5----5---5---5---5---5---5---|-5---5---5---5---5---5---5--5--5- ||
E|| ------------------------------------------------------- ||


Repeat 4x
E|| ------------------------------------------------------- ||
B|| ------------------------------------------------------- ||
G|| ---------------------------------|---10--------12--------10-------- ||
D|| ---------------------------------|---10--------12--------10-------- ||
A|| ------------------------------------------------------- ||
E|| -10--10--10--10--10--10--10--10--|--------10--------10------------- ||


E|| ------------------------------------------------------- ||
B|| ------------------------------------------------------- ||
G|| ------------------------5----5---|---7----------------------7------ ||
D|| ----------3---5---7------------------------------------ ||
A|| --3---5------------------------------------------------ ||
E|| ------------------------------------------------------- ||


E|| ------------------------------------------------------- ||
B|| ------------------------------------------------------- ||
G|| ---7---5-------------------------------------5--------- ||
D|| -----------7---6---5---3---------------------5----3---- ||
A|| --------------------------5------|--3--------------------3----1---- ||
E|| ------------------------------------------------------- ||


Verses 3 & 4

          3. No  -  body    gonna      take    my      head,   I  got
          4. No  -  body    gonna      take    my     car  I´m  gonna
E|| ------------------------------------------------------- ||
B|| ------------------------------------------------------- ||
G|| ------------------------------------------------------- ||
D|| -----------------------------------------------5------- ||
A|| ---------5---5---5---5---5---5---|-5---5---5---5---5---5---5------- ||
E|| --1 / 3--3---3---3---3---3---3---|-3---3---3---3---3---3----------- ||



     speed   in - side   my   brain.
       race  it   to   the   ground.
                                       Bb5         C5           Bb5
E|| ------------------------------------------------------- ||
B|| ------------------------------------------------------- ||
G|| ---------------------------------|--3-----------5------------3----- ||
D|| ---------5-----5-----------5-----|--3-----------5------------3----- ||
A|| ---------5-----5----5------5-----|--1-----------3------------1----- ||
E|| -3---3--------------3------------|--------3------------3----------- ||


         A  -  no  - body    gonna    steal my  head   now  that   I´m
         A  -  no  - body    gonna    beat  my  car,   it´s   gonna
E|| ------------------------------------------------------- ||
B|| ------------------------------------------------------- ||
G|| ------------------------------------------------------- ||
D|| ------------------------------------------------------- ||
A|| -5---5---5---5---5---5---5---5---|-5---5---5---5---5---5---5---5--- ||
E|| -3---3---3---3---3---3---3---3---|-3---3---3---3---3---3---3---3--- ||


    on   the      road     a  -  gain.
     break  the  speed   of    sound.
                                       Bb5         C5           Bb5
E|| ------------------------------------------------------- ||
B|| ------------------------------------------------------- ||
G|| ---------------------------------|--3-----------5------------3----- ||
D|| ---------------------------------|--3-----------5------------3----- ||
A|| -5---5---5---5---5---5---5---5---|--1-----------5------------1----- ||
E|| -3---3---3---3---3---3---3---3---|--------3------------3----------- ||


             Ooh,              I´m  in  heavan     again.
             Ooh,              It´s  a   killin,    machine.
E|| ------------------------------------------------------- ||
B|| ------------------------------------------------------- ||
G|| ------------------------------------------------------- ||
D|| ------------------------------------------------------- ||
A|| ------------------------------------------------------- ||
E|| --1------1---1---1---1---1---1---|--1---1---1---1---1---1---1---1-- ||


      I     got   a - ev - ´ry thing,
      It´s  got   a - ev - ´ry thing,
E|| ------------------------------------------------------- ||
B|| ------------------------------------------------------- ||
G|| ---------------------------------|--------2-------1--------0------- ||
D|| ---------------------------------|--------3-------2--------1------- ||
A|| ------------------------------------------------------- ||
E|| --1---1---1---1---1---1---1---1--|---1----------------------------- ||


                      like   a    mov - in´     ground,
                      like   a    driv - in´     power,
             D             Dsus4          D
E|| ---------2---------------3-------|----2---------------------------- ||
B|| ---------3---------------3-------|----3---------------------------- ||
G|| ---------2---------------2-------|----2----------------------2----- ||
D|| ----0--------------------------------------------0----- ||
A|| -------------------------------------------------0----- ||
E|| ------------------------------------------------------- ||


      throttle con - trol   and ev - ´ry thing.
       big  fat tires       and ev - ´ry thing.
       D                      Dsus4          D
E|| ---2------------------------3----|-------2------------------------- ||
B|| ---3------------------------3----|-------3------------------------- ||
G|| ---2------------------------2----|-------2---------------2--------- ||
D|| ---0------------------------0----|-------0---------------0--------- ||
A|| ----------------------------------------------------0-- ||
E|| ------------------------------------------------------- ||


           I  love  it                      and  I  need  it!
           I  love  it                      and  I  need  it!
E|| ------------------------------------------------------- ||
B|| ------------------------------------------------------- ||
G|| ----------------------------5--------------------5----- ||
D|| --------7---7---7---7---7---5----|-------7---7---7---7---7---5----- ||
A|| ----0---0---0---0---0---0--------|-------0---0---0---0---0--------- ||
E|| ----0-------------------------------------------------- ||


       I  seed   it!
       I  bleed  it!
E|| ------------------------------------------------------- ||
B|| ------------------------------------------------------- ||
G|| ---------------------------5-----|---------5-----------------5----- ||
D|| -----7---7---7---7---7-----5-----|-----7---5------------7----5----- ||
A|| -----0---0---0---0---0-----------|-----0----------------0---------- ||
E|| ------------------------------------------------------- ||


                  Eight  cylinders,  all mine!
                  Yeah,  it´s a  mad hurricane                    C
E|| --------------------------------------------------8---- ||
B|| --------------------------------------------------8---- ||
G|| ---5------------------------5---------------------9---- ||
D|| ---5----7---7---7---7---7---5----|-------7---7---7---7--------10--- ||
A|| --------0---0---0---0---0--------|-------0---0---0---0---0----10--- ||
E|| --------------------------------------------------8---- ||


  Al   -   right,           hold           tight,              I´m
             D                C               D                 C
E|| --------------------------8---------------------8------ ||
B|| ---------7----------------8------|--------7-----------------8------ ||
G|| ---------7----------------9------|--------7-----------------9------ ||
D|| ---------7----------------10-----|--------7-----------------10----- ||
A|| -----0---5----------------10-----|----0---5-----------------10----- ||
E|| --------------------------8---------------------8------ ||


                  a             high      -     way        star!
        C          D            F               Gm             A
E|| ----8----------------------------|----------10-------------12------ ||
B|| ----8----------7------------10---|----------11-------------14------ ||
G|| ----9----------7------------10---|----------12-------------14------ ||
D|| ----10---------7------------10---|----------12-------------14------ ||
A|| ----10----0----5-------0----8----|----------10-------------12------ ||
E|| ----8-------------------------------------------------- ||



E|| -----------------------------------------20------------ ||
B|| ------------------------------------------------------- ||
G|| ---------------------------------19-------------------- ||
D|| ------------------------------------------------------- ||
A|| ------------------------------------------------------- ||
E|| ------------------------------------------------------- ||


                                                                (1) ~~~~~~
E|| ------------------------------------------------------- ||
B|| -----------------------------------------------13^----- ||
G|| -------------------------------------------10---------- ||
D|| -----7---------------------------------12-------------- ||
A|| -----0------------------------------------------------- ||
E|| ------------------------------------------------------- ||


                             (1)          ~~~~~~~~~~~~             (1)
E|| ---------------------------------------------------12^- ||
B|| ------------------------13^--------------------10------ ||
G|| --------------------10-----------|----10------10-/10-------------- ||
D|| ----------------12------------------------------------- ||
A|| ------------------------------------------------------- ||
E|| ------------------------------------------------------- ||


                   (.25)          ~~~~~~~~~                    (1)~~~~~~~~~
E|| -12--12--10--0----------------------------------------- ||
B|| ----------------------------------------------13^-/0--- ||
G|| ----------------10^------12--10--|----10-2----------10------------ ||
D|| ---------------------12-----------/12------------------ ||
A|| ------------------------------------------------------- ||
E|| ------------------------------------------------------- ||


                             (1)          ~~~~~~~~~~~~             (1)
E|| ---------------------------------------------------12^- ||
B|| ------------------------13^--------------------10------ ||
G|| --------------------10-----------|----10------10-/10-------------- ||
D|| ----------------12------------------------------------- ||
A|| ------------------------------------------------------- ||
E|| ------------------------------------------------------- ||


                  (.25)          ~~~~~~~~~~~~~~~~~~~         (1)
E|| -12--12--10--0----------------------------------------- ||
B|| ----------------------------------------------8^------- ||
G|| ----------------10^------12--10--10-------------------- ||
D|| ---------------------12-------------------------------- ||
A|| ------------------------------------------------------- ||
E|| ------------------------------------------------------- ||


          (1)               (1)             (1)                (1)
E|| ------------------------------------------------------- ||
B|| ------8^----------------8^-------|------8^-----------------8^------ ||
G|| ------------------------------------------------------- ||
D|| ------------------------------------------------------- ||
A|| ------------------------------------------------------- ||
E|| ------------------------------------------------------- ||


                  (.25)                (.25)        ~~~~~~~~~~~
E|| ------------------------------------------------------- ||
B|| -8--8--7--5-------------------------------------------- ||
G|| --------------5^------7----5-----|---5----------------------------- ||
D|| ------------------7--------------|---------7---7----------5---7---- ||
A|| ------------------------------------------------------- ||
E|| ------------------------------------------------------- ||


      (.25)     (.25)      (.25)       (.25)      (.25)        (.25)
E|| ------------------------------------------------------- ||
B|| ------------------------------------------------------- ||
G|| --5^---------5^---------5^-------|--5^----------5^----------5^----- ||
D|| ------7--5-------7--5--------7---|------7---5-------7---5------7-0- ||
A|| ------------------------------------------------------- ||
E|| ------------------------------------------------------- ||


        (1)        (1)      (1)         (1)    (1)    (1)    (1)    (1)
E|| ----------------------------------------------------8^- ||
B|| ----8^---------8^-------8^-------|--8^-----8^-----8^-----8^-------- ||
G|| ------------------------------------------------------- ||
D|| ------------------------------------------------------- ||
A|| ------------------------------------------------------- ||
E|| ------------------------------------------------------- ||


                       ~~~~    (1)                        ~~~~   (1)
E|| ----8---5------------------8^----|-----8---6-----------------8^---- ||
B|| --------------6----------------------8----------------- ||
G|| -------------------7----------------------7------------ ||
D|| ------------------------------------------------------- ||
A|| ------------------------------------------------------- ||
E|| ------------------------------------------------------- ||


                      ~~~~    (1)                          ~~~~
E|| ----10---8----------------10^----|----10----8---------------------- ||
B|| --------------8-----------------------8---------------- ||
G|| ------------------9------------------------9----------- ||
D|| ------------------------------------------------------- ||
A|| ------------------------------------------------------- ||
E|| ------------------------------------------------------- ||


        (1)             (1)               (1)                 (1)
E|| -------5--------------6----------|-------7-------------------8----- ||
B|| ----8^--------------9^-----------|----10^-----------------11^------ ||
G|| ------------------------------------------------------- ||
D|| ------------------------------------------------------- ||
A|| ------------------------------------------------------- ||
E|| ------------------------------------------------------- ||



E|| -5-6-8-8-5-6-8-8-5-6-8-8-5-6-8-8-|-5-6-8-8-5-6-8-8-5-6-8-8-5-6-8-8- ||
B|| ------------------------------------------------------- ||
G|| ------------------------------------------------------- ||
D|| ------------------------------------------------------- ||
A|| ------------------------------------------------------- ||
E|| ------------------------------------------------------- ||



E|| -6-8-10-10-6-8-10-10-6-8-10-10-6-8-10-10-|
B|| -----------------------------------------|
G|| -----------------------------------------|
D|| -----------------------------------------|
A|| -----------------------------------------|
e|| -----------------------------------------|



E|| -6-8-10-10-6-8-10-10-6-8-10-10-6-8-10-10-|
B|| -----------------------------------------|
G|| -----------------------------------------|
D|| -----------------------------------------|
A|| -----------------------------------------|
e|| -----------------------------------------|



E|| -8-10-12-12-8-10-12-12-8-10-12-12-8-10-12-12-|
B|| ---------------------------------------------|
G|| ---------------------------------------------|
D|| ---------------------------------------------|
A|| ---------------------------------------------|
e|| ---------------------------------------------|



E|| -8-10-12-12-8-10-12-12-8-10-12-12-8-10-12-12-|
B|| ---------------------------------------------|
G|| ---------------------------------------------|
D|| ---------------------------------------------|
A|| ---------------------------------------------|
e|| ---------------------------------------------|



E||-17-17-0-0-15-14-0-0-14-13-0-0-13-12-0-0-|
B|| ----------------------------------------|
G|| ----------------------------------------|
D|| ----------------------------------------|
A|| ----------------------------------------|
e|| ----------------------------------------|



E||-12-11-0-0-11-10-0-0-10-9-0-0-9-8-0-0-|-5-6-8-8-5-6-8-8-5-6-8-8-5-6-8-8--||
B|| ------------------------------------------------------------||
G|| ------------------------------------------------------------||
D|| ------------------------------------------------------------||
A|| ------------------------------------------------------------||
e|| ------------------------------------------------------------||



E||-5-6-8-8-5-6-8-8-5-6-8-8-5-6-8-8-|-6-8-10-10-6-8-10-10-6-8-10-10-6-8-10-10||
B----------------------------------------||
G----------------------------------------||
D----------------------------------------||
A----------------------------------------||
E----------------------------------------||



E|| -6-8-10-10-6-8-10-10-6-8-10-10-6-8-10-10-|
B|| -----------------------------------------|
G|| -----------------------------------------|
D|| -----------------------------------------|
A|| -----------------------------------------|
e|| -----------------------------------------|



E|| -8-10-12-12-8-10-12-12-8-10-12-12-8-10-12-12-|
B|| ---------------------------------------------|
G|| ---------------------------------------------|
D|| ---------------------------------------------|
A|| ---------------------------------------------|
e|| ---------------------------------------------|



E|| -8-10-12-12-8-10-12-12------10-12-12-12-13-15-16-|
B|| -------------------------------------------------|
G|| -------------------------------------------------|
D|| -------------------------------------------------|
A|| -------------------------------------------------|
e|| -------------------------------------------------|


E||-17-17-0-0-15-14-0-0-14-13-0-0-13-12-0-0-|
B|| ----------------------------------------|
G|| ----------------------------------------|
D|| ----------------------------------------|
A|| ----------------------------------------|
e|| ----------------------------------------|



E||12-11-0-0-11-10-0-0-10-9-0-0-9-8-0-0-|12-11-0-0-11-10-0-0-10-9-0-0-9-8-0-0-||
B-----------------------------------------||
G-----------------------------------------||
D-----------------------------------------||
A-----------------------------------------||
e-----------------------------------------||


E|| -8-7-0-0-7-6-0-0-6-5-0-0-5-4-0-0-|-4-3-0-0-3-2-0-0-2-2-0-0-3-3-0-0- ||
B|| ------------------------------------------------------- ||
G|| ------------------------------------------------------- ||
D|| ------------------------------------------------------- ||
A|| ------------------------------------------------------- ||
e|| ------------------------------------------------------- ||


                                        (1)                      (.25)
E|| --4-4-0-0-5-5-0-0-6-6-0-0-7-7-0--|--------5------------------------ ||
B|| ---------------------------------|--8^-------8---7---5------------- ||
G|| ---------------------------------------------8----7^--- ||
D|| ------------------------------------------------------- ||
A|| ------------------------------------------------------- ||
e|| ------------------------------------------------------- ||


               (.25)            (1)
E|| ---------------------------------|-------5------------------------- ||
B|| --------------------------8^-----|--8--------8---5----------------- ||
G|| --5-----7--5^----------------------------8---7---5----- ||
D|| -----7---------7----0--------------------------------7- ||
A|| ------------------------------------------------------- ||
e|| ------------------------------------------------------- ||


                                          ~~~~~~~~~~
E|| ------------------------------------------------------- ||
B|| ------------------------5------------------------------ ||
G|| ---7---5----------------5--------|----5----------------5-0-------- ||
D|| -----------7---5---7----------------------------------- ||
A|| ------------------------------------------------------- ||
e|| ------------------------------------------------------- ||


      I´m       a             high       -       way             star!
E|| ------------------------------------------------------- ||
B|| ------------------------------------------------------- ||
G|| ------------------------------------------------------- ||
D|| ------------------------------------------------------- ||
A|| ---3----0---5--------------8-------10-------------12--- ||
e|| ------------------------------------------------------- ||


             I´m             a                high     -     way 
E|| ------------------------------------------------------- ||
B|| ------------------------------------------------------- ||
G|| ------------------------------------------------------- ||
D|| ---------------------------------|--------15-----------17---------- ||
A|| -------12-/15-------------17--------------------------- ||
e|| ------------------------------------------------------- ||


                 star!          I´m                 a             high  -
                                                                 (.5)
E|| ------------------------------------------------------- ||
B|| --------------------------------------------------8^--- ||
G|| ----------------------------17------19----------------- ||
D|| ---17--------19---------------------------------------- ||
A|| ------------------------------------------------------- ||
e|| ------------------------------------------------------- ||


            way                        star!
            (1)            (1)         (1)      (1)           (1)
E|| ------------------------------------------------------- ||
B|| ---------8^-------------8^-------|--8^-------8^------------8^------ ||
G|| ------------------------------------------------------- ||
D|| ------------------------------------------------------- ||
A|| ------------------------------------------------------- ||
e|| ------------------------------------------------------- ||


E|| ------5------------------------------------------------ ||
B|| --8-------8---7---5------------------------------------ ||
G|| -----------------------8---7-----|---5-------7---5----------------- ||
D|| ---------------------------------|-------7-----------7---5-------7- ||
A|| -------------------------------------------------7----- ||
e|| ------------------------------------------------------- ||


E|| ------------------------------------------------------- ||
B|| ------------------------------------------------------- ||
G|| ------------------------------------------------------- ||
D|| --5---------------------------------------------------- ||
A|| ------7----6----5----3--------------------------------- ||
e|| --------------------------5---------3-----5----------5- ||


Текст, аккорды и табулатура для песни "Highway Star", исполняет "Deep Purple".
Используемые в песне аккорды можно найти в разделе Как брать аккорды. Аккорды для шестиструнной гитары. Другие песни можно найти на нашем сайте, воспользовавшись алфавитным указателем вверху страницы.


Слушать онлайн Highway Star


Deep PurpleHighway Star на Яндекс.Музыке


 
Ошибка в тексте? Выделите ошибку и нажмите Ctrl+Enter