-----------------------------------------------------------------------------
Title and Registration - Death Cab For Cutie
-----------------------------------------------------------------------------
Tabbed by:Mike
Email:[email protected]
Tuning:standard EADGBE

here's an alternate version i think is easier to play

 Verse
e|-------------------------------------------------------------------|
B|-------------2----------------2---------2--5-2-3-2-----------------|
G|----2--2--4----4-2-----2-2--4--4-2------2---------4-2--------------|
D|--4--4--4---------4-0-2-2-2--------4-0--4--------------------------|
A|----------------------------------------5--------------------------|
E|-------------------------------------------------------------------|

e|-------------------------------------------------------------------|
B|-------------2----------------2---------2--------------------------|
G|----2--2--4----4-2-----2-2--4--4-2------2--------------------------|
D|--4--4--4---------4-0-2-2-2--------4-0--4--4-----------------------|
A|----------------------------------------5-5------------------------|
E|-------------------------------------------------------------------|
 
Chorus
 
e|--------------------------------------------------------------------------|
B|----2-----2-----2-----2-----2--3------------------------------------------|
G|---2-2---2-2---2-2---2-2---2-2--------------------------------------------|
D|-0-----0------------------------------------------------------------------|
A|-------------0-----0-----2------------------------------------------------|
E|--------------------------------------------------------------------------|
 
Bridge this is what the keyboard is doing.. I put it as guitar.. 
e-------------------------------------------9-----------
b-7-9--10---7-9---10---10----7-9--10---7-10-------7-----
g--------------------7----9-------------------7-9---9---
d-------------------------------------------------------
a-------------------------------------------------------
E-------------------------------------------------------
 
--------------------------------------7-9--|
-7-9--10---7-9---10---10----7-9--10--------|
--------------------7----9-----------------|
-------------------------------------------|
-------------------------------------------|
-------------------------------------------|


Текст, аккорды и табулатура для песни "Title And Registration", исполняет "Death Cab For Cutie".
Используемые в песне аккорды можно найти в разделе Как брать аккорды. Аккорды для шестиструнной гитары. Другие песни можно найти на нашем сайте, воспользовавшись алфавитным указателем вверху страницы.


 
Ошибка в тексте? Выделите ошибку и нажмите Ctrl+Enter