Zombie Ritual - Death |
----------------------
 
TAB: by Big M
e-mail: [email protected]
 
Tune down one step to D !!!
 
Intro
2x
F|---|---|---|-------------------------|
C|---|---|---|-------------------------|
G|---|---|---|-------------------------|
D|---|---|-5-|-1-----------0-----------|
 
2x
F|-------------------------|-------------------------|---|-------------------------|
C|-------------6-7-6-------|-------------------------|---|-------------------------|
G|-7-------7-8-------8-7---|-8-------7---------------|---|-------------------------|
D|-------------------------|-------------------------|-5-|-1-----------0-----------|
 
Verse
F|-----------------|------------------|
C|-----------------|------------------|
G|-------------578-|------------------|
D|-000000000000----|-4444444433337777-|
 
Fig.1
F|------------------|------------------|
C|------------------|------------------|
G|------------------|------------------|
D|-0000222211111111-|-0000444433333333-|
 
Fig.2
F|------------------|------------------|
C|------------------|------------------|
G|------------------|------------------|
D|-1234-0-----------|-4321-2---1-------|
 
Fig.3
F|------------------|----------------------------|
C|---------9--------|-10-------------------------|
G|-7----------------|-----------1010101010101010-|
D|------------------|----------------------------|
 
Pre-Chorus
F|------------------|------------------|
C|------------------|------------------|
G|---------22222222-|-33333333---------|
D|-00000000---------|---------33333333-|
 
Chorus
F|------------------|-----------------|------------------|-----------------|
C|------------------|-----------------|------------------|-----------------|
G|------------------|-----------------|------------------|-------------3---|
D|-2222222222222222-|-333-333-444-333-|-2-22222222222222-|-333-333-444-----|
 
Solo
F|-----------------|------------------|
C|-------4---4-5---|------------------|
G|-222222--22----5-|-44444444---------|
D|-----------------|---------33332222-|
 
----------------
Song structure: |
----------------
Intro       1x
Verse       6x
Fig.1       2x
Fig.2       4x
Fig.3       6x
Pre-Chorus  2x
Chorus      2x
Verse       6x
Fig.1       2x
Fig.2       2x
Fig.3       6x
Pre-Chorus  2x
Chorus      2x
Solo        6x
Chorus      2x


Текст, аккорды и табулатура для песни "Zombie Ritual", исполняет "Death".
Используемые в песне аккорды можно найти в разделе Как брать аккорды. Аккорды для шестиструнной гитары. Другие песни можно найти на нашем сайте, воспользовавшись алфавитным указателем вверху страницы.


 
Ошибка в тексте? Выделите ошибку и нажмите Ctrl+Enter