FROM THE "SYMBOLIC" CD 
         
 some more soli by Volker Hilsheimer 


 Solo played at repetition instead of Chuck´s first solo 
|------20----------------------------------------| 
|-13-------------------------------------12------| 
|---------------9-12----11-12-11--9-8-8----------| GTR I 
|------------------------------------------------| 
|------------------------------------------------| 
|------------------------------------------------| 
                . . 

|---20------19----24---22-20-19/20-14---12-11-----| 
|-17--17-17----------------------------------------| 
|--------------------------------------------------| GTR I 
|--------------------------------------------------| 
|--------------------------------------------------| 
|--------------------------------------------------| 

|------------------------------| 
|-12---------------------------| 
|----11------------------------| GTR I 
|----------14-13-10------------| 
|-------------------14-12-10-9-| 
|------------------------------| 
                    .  .  .  . 


 Koelble continues Chuck´s long solo... 
|----------------------------14--14-14--12--14---15--15-15--15--14--| 
|-------------------------------------------------------------------| 
|-------------------------------------------------------------------| GTR I 
|-------------------------------------------------------------------| 
|-------------------------------------------------------------------| 
|-------------------------------------------------------------------| 

|--24--24-24--22--21-24---------------------------------------------| 
|-------------------------------------------------------------------| 
|---------------------------------[-Flanger-effects-up-and-down-]---| GTR I 
|-------------------------------------------------------------------| 
|-------------------------------------------------------------------| 
|-------------------------------------------------------------------| 


|-17-15------------------------------17--15----17-------------------| 
|-------18-14-------------------------------------------------------| 
|-------------14----------------------------------------------------| GTR I 
|----------------16-------------------------------------------------| 
|-------------------15-13-12----------------------------------------| 
|----------------------------15--14---------------------------------| 


|----------------------14-15-17-14-------21-------------------------| 
|-------------14-15-17-------------14-------------------------------| 
|----------14-------------------------------------------------------| GTR I 
|-14-16-17----------------------------16----------------------------| 
|-------------------------------------------------------------------| 
|-------------------------------------------------------------------| 


|-21--21--17----19--17----------------------------------------------| 
|------------19-----------------------------------------------------| 
|-------------------------------------------------------------------| 
|-------------------------------------------------------------------| 
|-------------------------------------------------------------------| 
|-------------------------------------------------------------------| 


Текст, аккорды и табулатура для песни "Zero Tolerance", исполняет "Death".
Используемые в песне аккорды можно найти в разделе Как брать аккорды. Аккорды для шестиструнной гитары. Другие песни можно найти на нашем сайте, воспользовавшись алфавитным указателем вверху страницы.


 
Ошибка в тексте? Выделите ошибку и нажмите Ctrl+Enter