Death
Without Judgement / Symbolic                                                               Chuck Cheldinner
Rythm Guitar 
                                                                            3x
D||------------------------------------|-------------------------------------||
A||------------------------------------|-------------------------------------||
F||*--2--------------------------------|------------------------------------*||
C||*--2--------------------------------|--3----------------5----------------*||
G||---0--------------------------------|--3----------------5-----------------||
D||------------------------------------|--1----------------3-----------------||


                                                        
---------------------------|---------------------------|
---------------------------|---------------------------|
*--------------------------|---------------------------|
*--------------------------|---------------------------|
---------------8--7--5--7--|---------------------------|
---0--0--0--0--------------|--0--0--0--0--0-0-0--0--0--|


                                                       
--------------------------|---------------------------|
--------------------------|---------------------------|
--------------------------|---------------------------|
--------------------------|---------------------------|
--------------3--2--------|---------------------------|
--0--0--0--0--------3--5--|--0--0--0--0--1-1-1--1--1--|


                                                       
--------------------------|---------------------------|
--------------------------|---------------------------|
--------------------------|---------------------------|
--------------------------|---------------------------|
--------------8--7--5--7--|---------------------------|
--0--0--0--0--------------|--0--0--0--0--0-0-0--0--0--|


                                                        
--------------------------|---------------------------||
--------------------------|---------------------------||
--------------------------|--------------------------*||
--------------------------|--------------------3-----*||
--------------3--2--------|-----------------2-----2---||
--0--0--0--0--------3--5--|--0--0--0--0--1------------||


                                                                
---------------------------------------------------------------|
---------------------------------------------------------------|
*-----------7-------------6-------------9----------------------|
*-----------5-------------4-------------7----------------------|
---------------------------------------------7-----------5-----|
---0--0--0-------0--0--0-------0--0--0----------5--0--3-----3--|


                                                               3x
---------------------------------------------------------------||
---------------------------------------------------------------||
-----------7--------------------------------------------------*||
-----------5-------------7-------------9----------------------*||
-------------------------5-------------7----7-----------5------||
--0--0--0-------0--0--0-------0--0--0----------5--0--3-----3---||


                                             
--------------------------------------------|
--------------------------------------------|
-----------7--------------------------------|
-----------5-------------7-------------9----|
-------------------------5-------------7----|
--0--0--0-------0--0--0-------0--0--0-------|


                                             3x
|--------------------------------------------||
|--------------------------------------------||
|*------------------------------------------*||
|*------------1-------------------1---------*||
|-------------1-------------------1----------||
|---0--0-0-0-----0-0-0--0--0-0-0-----0-0-0---||


                                           
------------------------------------------|
------------------------------------------|
------------------------------------------|
------------1-------------------1---------|
------------1-------------------1---------|
--1--1-1-1-----1-1-1--1--1-1-1-----1-1-1--|


                                           
------------------------------------------|
------------------------------------------|
------------------------------------------|
------------1-------------------1---------|
------------1-------------------1---------|
--1--1-1-1-----1-1-1--1--1-1-1-----1-1-1--|


                                           
------------------------------------------|
------------------------------------------|
------------------------------------------|
------------1-------------------1---------|
------------1-------------------1---------|
--0--0-0-0-----0-0-0--0--0-0-0-----0-0-0--|


                                           
------------------------------------------|
------------------------------------------|
------------------------------------------|
------------1-------------------1---------|
------------1-------------------1---------|
--0--0-0-0-----0-0-0--0--0-0-0-----0-0-0--|


                                           
------------------------------------------|
------------------------------------------|
------------------------------------------|
------------1-------------------1---------|
------------1-------------------1---------|
--1--1-1-1-----1-1-1--1--1-1-1-----1-1-1--|


                                           
------------------------------------------|
------------------------------------------|
------------------------------------------|
------------1-------------------1---------|
------------1-------------------1---------|
--1--1-1-1-----1-1-1--1--1-1-1-----1-1-1--|


                                           
------------------------------------------|
------------------------------------------|
------------------------------------------|
------------1-------------------1---------|
------------1-------------------1---------|
--0--0-0-0-----0-0-0--0--0-0-0-----0-0-0--|


                                           
------------------------------------------|
------------------------------------------|
------------------------------------------|
------------1-------------------1---------|
------------1-------------------1---------|
--0--0-0-0-----0-0-0--0--0-0-0-----0-0-0--|


                                                                            
------------------------------------------|--------------------------------|
------------------------------------------|--------------------------------|
------------------------------------------|--------------------------------|
------------1-------------------1---------|------------1-------------------|
------------1-------------------1---------|------------1-------------------|
--1--1-1-1-----1-1-1--1--1-1-1-----1-1-1--|--1--1-1-1-----1-1-1--1--1-1-1--|


                                                  
-------------------||----------------------------|
-------------------||----------------------------|
-------------------||*---------------------------|
--1----------------||*---------------------------|
--1----------------||---7-----9-----10-----6-----|
-------------------||------0-----0------0-----0--|


                             3x                                 
-----------------------------||--------------------------------|
-----------------------------||--------------------------------|
----------------------------*||*-------------------------------|
----------------------------*||*-------------------------------|
--7-----9-----10-----12------||---10-------------9-------------|
-----0-----0------0------0---||-------8-8-8-8-8-----8-8-8-8-8--|


                                                           
------------------------------|---------------------------|
------------------------------|---------------------------|
------------------------------|---------------------------|
------------------------------|---------------------------|
--7-------------6-------------|--7-----9-----10-----6-----|
-----5-5-5-5-5-----5-5-5-5-5--|-----0-----0------0-----0--|


                             3x                                                
-----------------------------||------------------------|----------------------|
-----------------------------||------------------------|----------------------|
----------------------------*||*-----------------------|----------------------|
----------------------------*||*--2-------9------------|--5-------5----7------|
--7-----9-----10-----12------||---2-------7------------|--3----3--3----5------|
-----0-----0------0------0---||---0----0--0------0--0--|----------------------|


                                               3x                       
-----------------------|-----------------------||----------------------|
-----------------------|-----------------------||----------------------|
-----------------------|----------------------*||----------------------|
--2-------9------------|--5-------------------*||--5-------------------|
--2-------7------------|--3-------5----7-------||--3-------5----7------|
--0----0--0------0--0--|-------3--3----5-------||-------3--3----5------|


                                                          
|------------8------------|-----------8----10------------|
|-------------------------|------------------------------|
|*--0h-5h-8---------------|--0h-5h-8---------------------|
|*------------------------|------------------------------|
|-------------------------|------------------------------|
|-------------------------|------------------------------|


                                                            
------------10------------|------------10----11------------|
--------------------------|--------------------------------|
--0h-7h-10----------------|--0h-7h-10----------------------|
--------------------------|--------------------------------|
--------------------------|--------------------------------|
--------------------------|--------------------------------|


                                                      
------------11------------|------------13------------|
--------------------------|--------------------------|
--0h-7h-10----------------|--0h-7h-10----------------|
--------------------------|--------------------------|
--------------------------|--------------------------|
--------------------------|--------------------------|


                                                      2x                       
------------13------------|------------10-------------||------------10--------|
--------------------------|---------------------------||----------------------|
--0h-7h-10----------------|--0h-7h-10----------------*||--0h-7h-10------------|
--------------------------|--------------------------*||----------------------|
--------------------------|---------------------------||----------------------|
--------------------------|---------------------------||----------------------|


                                                         
|---------------------------|---------------------------|
|---------------------------|---------------------------|
|*--------------------------|---------------------------|
|*--------------------------|---------------------------|
|---------------8--7--5--7--|---------------------------|
|---0--0--0--0--------------|--0--0--0--0--0-0-0--0--0--|


                                                       
--------------------------|---------------------------|
--------------------------|---------------------------|
--------------------------|---------------------------|
--------------------------|---------------------------|
--------------3--2--------|---------------------------|
--0--0--0--0--------3--5--|--0--0--0--0--1-1-1--1--1--|


                                                       
--------------------------|---------------------------|
--------------------------|---------------------------|
--------------------------|---------------------------|
--------------------------|---------------------------|
--------------8--7--5--7--|---------------------------|
--0--0--0--0--------------|--0--0--0--0--0-0-0--0--0--|


                                                        
--------------------------|---------------------------||
--------------------------|---------------------------||
--------------------------|--------------------------*||
--------------------------|--------------------3-----*||
--------------3--2--------|-----------------2-----2---||
--0--0--0--0--------3--5--|--0--0--0--0--1------------||


                                                                
---------------------------------------------------------------|
---------------------------------------------------------------|
*-----------7-------------6-------------9----------------------|
*-----------5-------------4-------------7----------------------|
---------------------------------------------7-----------5-----|
---0--0--0-------0--0--0-------0--0--0----------5--0--3-----3--|


                                                               3x
---------------------------------------------------------------||
---------------------------------------------------------------||
-----------7--------------------------------------------------*||
-----------5-------------7-------------9----------------------*||
-------------------------5-------------7----7-----------5------||
--0--0--0-------0--0--0-------0--0--0----------5--0--3-----3---||


                                             
--------------------------------------------|
--------------------------------------------|
-----------7--------------------------------|
-----------5-------------7-------------9----|
-------------------------5-------------7----|
--0--0--0-------0--0--0-------0--0--0-------|


                                             3x
|--------------------------------------------||
|--------------------------------------------||
|*------------------------------------------*||
|*------------1-------------------1---------*||
|-------------1-------------------1----------||
|---0--0-0-0-----0-0-0--0--0-0-0-----0-0-0---||


                                              
--------------------------------------------||
--------------------------------------------||
*------------------------------------------*||
*------------1-------------------1---------*||
-------------1-------------------1----------||
---1--1-1-1-----1-1-1--1--1-1-1-----1-1-1---||


                                              
--------------------------------------------||
--------------------------------------------||
*------------------------------------------*||
*------------1-------------------1---------*||
-------------1-------------------1----------||
---0--0-0-0-----0-0-0--0--0-0-0-----0-0-0---||


                                              
--------------------------------------------||
--------------------------------------------||
*------------------------------------------*||
*------------1-------------------1---------*||
-------------1-------------------1----------||
---1--1-1-1-----1-1-1--1--1-1-1-----1-1-1---||


                                              
--------------------------------------------||
--------------------------------------------||
*------------------------------------------*||
*------------1-------------------1---------*||
-------------1-------------------1----------||
---0--0-0-0-----0-0-0--0--0-0-0-----0-0-0---||


                                                                            
------------------------------------------|--------------------------------|
------------------------------------------|--------------------------------|
------------------------------------------|--------------------------------|
------------1-------------------1---------|------------1-------------------|
------------1-------------------1---------|------------1-------------------|
--1--1-1-1-----1-1-1--1--1-1-1-----1-1-1--|--1--1-1-1-----1-1-1--1--1-1-1--|


                                                  
-------------------||----------------------------|
-------------------||----------------------------|
-------------------||*---------------------------|
--1----------------||*---------------------------|
--1----------------||---7-----9-----10-----6-----|
-------------------||------0-----0------0-----0--|


                             3x                                 
-----------------------------||--------------------------------|
-----------------------------||--------------------------------|
----------------------------*||*-------------------------------|
----------------------------*||*-------------------------------|
--7-----9-----10-----12------||---10-------------9-------------|
-----0-----0------0------0---||-------8-8-8-8-8-----8-8-8-8-8--|


                                                           
------------------------------|---------------------------|
------------------------------|---------------------------|
------------------------------|---------------------------|
------------------------------|---------------------------|
--7-------------6-------------|--7-----9-----10-----6-----|
-----5-5-5-5-5-----5-5-5-5-5--|-----0-----0------0-----0--|


                             3x                           
-----------------------------||-------------------------||
-----------------------------||-------------------------||
----------------------------*||-------------------------||
----------------------------*||----------------8--------||
--7-----9-----10-----12------||--7-------------6--------||
-----0-----0------0------0---||-----5-5-5-5-5-----------||


Текст, аккорды и табулатура для песни "Without Judgement", исполняет "Death".
Используемые в песне аккорды можно найти в разделе Как брать аккорды. Аккорды для шестиструнной гитары. Другие песни можно найти на нашем сайте, воспользовавшись алфавитным указателем вверху страницы.


 
Ошибка в тексте? Выделите ошибку и нажмите Ctrl+Enter