VACANT PLANETS - Death - Human

Relativity - 1991

Rhythm Guitars transcribed on Bass (no chords or leads)
Tuning (Low - High): D G C F

                   (x3)                     (x1)    
|---------------------|---8---9-11----9----8---|
|---------------------|-7---7------10---10---9-|
|---6---7-9---7---6---|------------------------|
|-5---5-----8---8---7-|------------------------|

A          (x1)                                                      (x1)    
|-------------|---------------------------------------------------------|
|-------------|---------------------------------------------------------|
|-----5-8-7---|-----7-8-7---------7-8-8---------7-8-7-------------2-3---|
|-5-8-------8-|-0-0-------0-0-0-0-------0-0-0-0-------0-0-0-0-2-3-----3-|

B                                               (x1)    
|--------------------------------------------------|
|--------------------------------------------------|
|-----7-8-7---------7-8-8---------7-8-7-4-3---6----|
|-0-0-------0-0-0-0-------0-0-0-0-----------4---3~-|

                                                      (x1)    
|--------------------------------------------------------|
|----------------------------------------------9-10------|
|-----7-8-7---------7-8-8---------7-8-7-7-9-10------10-7-|
|-0-0-------0-0-0-0-------0-0-0-0------------------------|

Repeat B

C1                                                                      (x1)
|-------------------------------------------------------------------------|
|-------------------------------------------------------------------------|
|-----------------8-7---------------------------4-3-----------------6-5---|
|-5-5-5-5-5-5-5-5-----8-4-4-4-4-4-4-4-4-4-4-4-4-----3-3-3-3-3-3-3-3-----6-|

C2                                                                            (x1)
|-------------------------------------------------------------------------------|
|-------------------------------------------------7-8---5-----------------------|
|-----------------8-7---------------------------5-----3-------------------6-5---|
|-5-5-5-5-5-5-5-5-----8-4-4-4-4-4-4-4-4-4-4-4-4-----------3-3-3-3-3-3-3-3-----6-|

Repeat C1 and C2
                                                                                 (x2)
|-------------------|---------------------|-------------------|---------------------|
|-------------------|---------------------|-------------------|---------------------|
|-------------------|---------------------|-------------------|---------------------|
|-1-0-0-0-1-0-0-0-1-|-1-0-0-0-1-0-0-0-3-4-|-1-0-0-0-1-0-0-0-1-|-1-0-0-0-1-0-0-0-4-3-|
 
D1                                                           (x1)
|---------------------------------------------------------------|
|-----------------8-8-8-8-------------------------8-8-8-8-------|
|---------7-7-7-7---------7-7-7-7---------7-7-7-7---------6-7---|
|-5-5-5-5-------------------------4-4-4-4---------------------4-|



D2                                                             (x1)
|-----------------------------------------------------------------|
|-----------------8-8-8-8-------------------------8-8-8-8---------|
|---------7-7-7-7---------7-7-7-7---------7-7-7-7---------5-6-----|
|-5-5-5-5-------------------------4-4-4-4---------------------4-2-|

                               (x2)
|---------------------------------|
|---------------------------------|
|-4-4-4-4-4-3---3-4-4-4-4-4-3---2-|
|-------------4---------------0---|

Repeat D1 and D2

                                             (x1)                    (x1)
|-----------------------------------------------|-------5/7-------------|
|-----------------------------------------------|-----5-----5---6/8---7-|
|-4-4-4-4-4-3---3-4-4-4-4-4-3---2-4-4-4-4-4-3---|-------------6-----6---|
|-------------4---------------0---------------5-|-0-2-------------------|

Tapping:                                           (x2)
|-12-15-19-(0)-12-15-19-(0)-12-15-19-(0)-12-15-20-(0)-|
|-----------------------------------------------------|
|-----------------------------------------------------|
|-----------------------------------------------------|

                                                   (x2)
|-----------------------------------------------------|
|-13-16-20-(0)-13-16-20-(0)-13-16-20-(0)-13-16-21-(0)-|
|-----------------------------------------------------|
|-----------------------------------------------------|

                                                   (x2)
|-12-15-19-(0)-12-15-19-(0)-12-15-19-(0)-12-15-20-(0)-|
|-----------------------------------------------------|
|-----------------------------------------------------|
|-----------------------------------------------------|

                                                   (x1)
|-----------------------------------------------------|
|-13-16-20-(0)-13-16-20-(0)-13-16-20-(0)-13-16-21-(0)-|
|-----------------------------------------------------|
|-----------------------------------------------------|

                         (x1)  (x1)
|---------------------------|-----|
|-13-16-20-(0)-13-16-20-(0)-|-----|
|---------------------------|-----|
|---------------------------|-2-6-|

E1                                                              (x1)
|-----------------------------------------------------------------|
|-------------------------------------------------5-5-5-5-5-5-5-5-|
|-----------------7-7-7-7-7-7-7-7-3-3-3-3-3-3-3-3-----------------|
|-5-5-5-5-5-5-5-5-------------------------------------------------|



E2                                                              (x1)
|---------------------------------------------------------------------------------|
|---------------------------------------------------------------------------------|
|-----------------7-7-7-7-7-7-7-7-3-3-3-3-3-3-3-3-5-5-5-5-5-5-5-5-3-3-3-3-2-2-2-2-|
|-5-5-5-5-5-5-5-5-----------------------------------------------------------------|

Repeat E1 and E2

                                                               (x3)
|-----------------------------------------------------------------|
|-----------------------------------------------------------------|
|-----------------7-7-7-7-7-7-7-7-6-6-6-6-6-6-6-6-----------------|
|-4-4-4-4-4-4-4-4---------------------------------3-3-3-3-3-3-3-3-|

                                               (x1)
|-------------------------------------------------|
|-------------------------------------------------|
|-----------------7-7-7-7-7-7-7-7-6-6-6-6-6-6-6-6-|
|-4-4-4-4-4-4-4-4---------------------------------|

Repeat from A to (end of) D2

                                                               (x1)
|-----------------------------------------------------------------|
|-----------------------------------------------------------------|
|-4-4-4-4-4-3---3-4-4-4-4-4-----3-4-4-4-4-4-3---3-4-4-4-4-4-3---2-|
|-------------4-------------5-5---------------4---------------0---|

Mike Reeves 


Текст, аккорды и табулатура для песни "Vacant Planets", исполняет "Death".
Используемые в песне аккорды можно найти в разделе Как брать аккорды. Аккорды для шестиструнной гитары. Другие песни можно найти на нашем сайте, воспользовавшись алфавитным указателем вверху страницы.


 
Ошибка в тексте? Выделите ошибку и нажмите Ctrl+Enter