#----------------------------------PLEASE NOTE---------------------------------#
#This file is the author's own work and represents their interpretation of the #
#song. You may only use this file for private study, scholarship, or research. #
#------------------------------------------------------------------------------#

DEATH - SYMBOLIC 
from the album 'Symbolic' (1995)

Tabbed by: Luca
For any questions: [email protected]
 
Tune down 1 whole step 

Intro - only guitar, then
F-|--------|
C-|--------|
G-|-7~-----|
D-|--------|

F-|-------------------------|   
C-|-------------------------|   
G-|-------5-----------3-----|   
D-|---3-------3---1-------1-|   


Riff 1 (play 7 times)
F-|-------------------------------|-------------------------------|
C-|-------------------------------|-------------------------------|
G-|-7-----------8~~~--------7-----|---------8~~~----7-----------8-|
D-|-----0---0-------------------0-|-0---0---------------0---0-----|

F-|------------------------|   
C-|------------------------|   
G-|------5-----------3-----|   
D-|--3-------3---1-------1-|   
 
            
Riff 2 (play 6 times)                                                                       
F-|---------------------------------|---------------------------------|
C-|---------------------------------|---------------------------------|
G-|-----------------9---10----------|-----------------12--10--9---10--|
D-|-0-0-0-0-0-0-0-0---------0-0-0-0-|-0-0-0-0-0-0-0-0-----------------|

F-|---------------------------------|---------------------------------|
C-|---------------------------------|---------------------------------|
G-|-----------------9---10----------|---------9---10--9---7-----------|
D-|-0-0-0-0-0-0-0-0---------0-0-0-0-|-0-0-0-0-----------------8~~~----|


Riff 3 (play 6 times)
 
F-|-----------------|
C-|-----------------|
G-|-----------------|
D-|-4~~~------------|                                                     
F-|------------------------|
C-|------------------------|
G-|------------------------|
D-|-5-5-5-5-5--------------|

Then once
F-|------------------------|--------------------------------|
C-|------------------7-----|-6------------------------------|
G-|------------------------|---------7~~~-------------------|
D-|-4~~~-------------------|--------------------------------|

F-|-------------------------------|--------------------------------|
C-|-------------------------7-----|-6------------------------------|
G-|-------------------------------|---------7-------6~~~-----------|
D-|-5-5-5-5-5---------------------|--------------------------------|

    
    
Riff 4 (play four times)    
F-|-------------------------------|--------------------------------|
C-|-----3-------3-------2-------2-|-3p2p0--------------------------|
G-|-------------------------------|---------3~~~----2~~~-----------|
D-|-0---------------0-------------|-------------------------4~~~---|

F-|-------------------------------|--------------------------------|
C-|-----3-------3-------2-------2-|--------------------------------|
G-|-------------------------------|-3-------2-----------3---2------|
D-|-0---------------0-------------|-----4-------3---1-----------3--|


Riff 5    
F-|-------------------------------|
C-|-------------------------------|
G-|-------------------------------|
D-|-0-----------------------------|                                                                                  
    
Riff 6  (play 14 times)
F-|-------------------------------|
C-|-------------------------------|
G-|-3-------2-----------3---2-----|
D-|-----4-------3---1-----------3-|


Riff 7 (during Chuck's solo, play 6 times)    
 
F-|-------------------------------|--------------------------------|
C-|-------------------------------|--------------------------------|
G-|-------------------------------|-------------5-------7----------|
D-|-2-----------------------------|-1------------------------------|
  

Riff 8 (6/4) (play only once)
    
F-|-----------------------------------------------|
C-|-----------------5-----------------------------|
G-|-----2---------------3-------------------------|
D-|-0-------------------------------1-------------|

Riff 9 (4/4, play 6 times and faster)

F-|----------------|-----------------|----------------|-----------------|
C-|----------------|-----------------|----------------|-----------------|
G-|-5--------------|-4---------------|----------------|-----------------|
D-|-----2-2-2-2-2-2|-----2-2-2-2-2-2-|-3---2-2-2-2-2-2|-2-2-2-2-2-2-2-2-|

F-|----------------|-----------------|----------------|-----------------|
C-|----------------|-----------------|----------------|-----------------|
G-|-5---2-2-2-2-2-2|-4---------------|-2--------------|-----------------|
D-|----------------|-----5-5-5-5-5-5-|-----3-3-3-3-3-3|-3-3-3-3-3-3-3-3-|

Riff 10 (play only once and slower)
F-|-------------------------------|
C-|-------------------------------|
G-|-7-----------------------------|
D-|-----4~~~--------3~~~----------|
                                                                               
That's all!

Let the metal flow!


Текст, аккорды и табулатура для песни "Symbolic", исполняет "Death".
Используемые в песне аккорды можно найти в разделе Как брать аккорды. Аккорды для шестиструнной гитары. Другие песни можно найти на нашем сайте, воспользовавшись алфавитным указателем вверху страницы.


 
Ошибка в тексте? Выделите ошибку и нажмите Ctrl+Enter