Tabbed by: Stephen Finnerty

Standard Tuning

Intro       Riff A (4 Times)
|----------||-----------------|
|----------||-----------------|
|-3-2------||--1-4-3---3-2----|
|----3-2---||-0-1-4-3~----3-2-|

Riff B
|----------------------------------------------------|
|----------------------------------------------------|
|-------------------------------------------22222222-|
|-000000-7h8-00005h7-0000-3-5-3-23-11111111---------|

|----------------------------------------------------||----------|
|----------------------------------------------------||----------|
|-------------------------------------------22222222-||-11111111-|
|-000000-7h8-00005h7-0000-3-5-3-23-11111111---------||----------|

|----------------------------------------------------|
|----------------------------------------------------|
|-------------------------------------------22222222-|
|-000000-7h8-00005h7-0000-3-5-3-23-11111111---------|

|----------------------------------------------------||---|
|----------------------------------------------------||---|
|-------------------------------------------22222222-||-1-|
|-000000-7h8-00005h7-0000-3-5-3-23-11111111---------||---|

Riff C  (Twice)
|-----------------------------||----------------------------|
|-----------------------------||----------------------------|
|------------------------2--1-||------------------------2-3-|
|-0-0000-0-0000-0-1111-1---3--||-0-0000-0-0000-0-1111-1--3--|

Pause

|-----------------------------------------------------------|
|-----------------------------------------------------------|
|-----------------------------------------------------------|
|00000000000000000000000000000000000000000000000000000000000|

Riff D
(7 Times)       (once)
|--------------||------|
|--------------||------|
|-7-6----8-7---||-7-6--|
|-----7------8-||----7-|

Riff E (Twice)
|--------------------------|
|--------------------------|
|---------6-5---------6-5--|
|-44444444-4-644444444-4-6-|

Riff F
|-----------------------------------|
|-----------------------------------|
|-----------------------------------|
|-3333444433334444-6666777766667777-|

|-----------------------------------|
|-----------------------------------|
|-----------------------------------|
|-3333444433334444-1111111111111111-|

|-----------------------------------|
|-----------------------------------|
|-----------------------------------|
|-3333444433334444-6666777766667777-|

|-----------------------------------|
|-----------------------------------|
|-----------------------------------|
|-3333444433334444-1111111111111111-|

Riff E  (4 Times)
|--------------------------|
|--------------------------|
|---------6-5---------6-5--|
|-44444444-4-644444444-4-6-|

Riff F
|-----------------------------------|
|-----------------------------------|
|-----------------------------------|
|-3333444433334444-6666777766667777-|

|-----------------------------------|
|-----------------------------------|
|-----------------------------------|
|-3333444433334444-1111111111111111-|

|-----------------------------------|
|-----------------------------------|
|-----------------------------------|
|-3333444433334444-6666777766667777-|

|-----------------------------------|
|-----------------------------------|
|-----------------------------------|
|-3333444433334444-1111111111111111-|

Riff G  (4 Times)
|-------------------------------------------------------------------------------
|-------------------------------------------------------------------------------
|-----------------------------------------------------111111111111--------------
|-111111111111-000000000000-333333333333-222222222222--------------111111111111-

(continued)
 --------------------------|
 --------------------------|
 --------------------------|
 -000000000000000000000000-|
 
Riff H
|-----------------------------------------------------|
|-----------------------------------------------------|
|-----------------------------------------------------|
|-777777777777-333333333333-666666666666-222222222222-|

|-----------------------------------------------------||-------------|
|-----------------------------------------------------||-------------|
|-----------------------------------------------------||-------------|
|-777777777777-333333333333-666666666666-222222222222-||-2-3-2-2-3-2-|

|-----------------------------------------------------|
|-----------------------------------------------------|
|-----------------------------------------------------|
|-777777777777-333333333333-666666666666-222222222222-|

|-----------------------------------------------------||-------------|
|-----------------------------------------------------||-------------|
|-----------------------------------------------------||-------------|
|-777777777777-333333333333-666666666666-222222222222-||-2-3-2-2-3-2-|


Riff A (4 Times)
|-----------------|
|-----------------|
|--1-4-3---3-2----|
|-0-1-4-3~----3-2-|

Riff B
|----------------------------------------------------|
|----------------------------------------------------|
|-------------------------------------------22222222-|
|-000000-7h8-00005h7-0000-3-5-3-23-11111111---------|

|----------------------------------------------------||----------|
|----------------------------------------------------||----------|
|-------------------------------------------22222222-||-11111111-|
|-000000-7h8-00005h7-0000-3-5-3-23-11111111---------||----------|

|----------------------------------------------------|
|----------------------------------------------------|
|-------------------------------------------22222222-|
|-000000-7h8-00005h7-0000-3-5-3-23-11111111---------|

|----------------------------------------------------||---|
|----------------------------------------------------||---|
|-------------------------------------------22222222-||-1-|
|-000000-7h8-00005h7-0000-3-5-3-23-11111111---------||---|

Riff C  (Twice)
|-----------------------------||----------------------------|
|-----------------------------||----------------------------|
|------------------------2--1-||------------------------2-3-|
|-0-0000-0-0000-0-1111-1---3--||-0-0000-0-0000-0-1111-1--3--|


Текст, аккорды и табулатура для песни "Pull The Plug", исполняет "Death".
Используемые в песне аккорды можно найти в разделе Как брать аккорды. Аккорды для шестиструнной гитары. Другие песни можно найти на нашем сайте, воспользовавшись алфавитным указателем вверху страницы.


 
Ошибка в тексте? Выделите ошибку и нажмите Ctrl+Enter