ARTIST:		Death
SONG:		God Of Thunder (Kiss Cover)
ALBUM:		Human (Hidden Track)
TUNING:		Down 1 Step (dAFCGD)
TABBED BY:	Michael Malone
E-MAIL:		[email protected]

**************************************************
* / - Slide			r - Release Bend *
* b - Bend To Next Number	p.m. - palm mute *
* h - Hammer on			(*) - Ghost note *
**************************************************

Riff 1.A
d|------|
A|------|
F|------|
C|------|
G|-12/9-|
D|-10/7-|

Riff 1.B
d|------------------------------------------------------------|
A|------------------------------------------------------------|
F|------------------------------------------------------------|
C|----------------------------------------------------------5-|
G|---------7-------5---5h7------------------7-------5---7-----|
D|-0---0-------7-----------------0------0-------7-------------|

d|------------------------------------------------------------|
A|------------------------------------------------------------|
F|--------------------------5-----------5---7---7b8r7---5-----|
C|--------------------------5-------7---5---7---7b8r7---5---7-|
G|---------7-------5---7------------7-----------------------7-|
D|-0---0-------7----------------------------------------------|

Riff 1.C
d|-----------------------------------------------------------------------|
A|-----------------------------------------------------------------------|
F|-----------------------------------------------------------------------|
C|-----------------------------------------------------------------------|
G|-------------7---5---5h7---------------------------7---5/7-7-7-5/7-7-7-|
D|-0---0---7---------------------0-------0-------7-----------------------|

Riff 1.D
d|------------------------------------------------------------------------|
A|------------------------------------------------------------------------|
F|------------------------------------------------------------------------|
C|-5---5-----------------7---7------9-------5------9--------------------4-|
G|-3---3------5---5------5---5------7-------3------7-----0--0--0--0--0--2-|
D|------------3---3-------------------------------------------------------|
                                                         p.m..........

d|------------------------------------------------------------------------|
A|------------------------------------------------------------------------|
F|-------------------------------------------------------7----------------|
C|-5---5-----------------7---7------9----(5)(4)(5)(4)(5)-5--7-------------|
G|-3---3------5---5------5---5------7-----3--2--3--2--3-----5-5-5-5-5-5-5-|
D|------------3---3-------------------------------------------------------|
                                          p.m..........       p.m........

Riff 1.E
d|-------|
A|-------|
F|-------|
C|-9---9-|
G|-7---7-|
D|-0---0-|


SONG ORDER
Riff 1.A - 1 Time
Riff 1.B - 3.5 Times
Riff 1.C - 1 Time
Riff 1.B - 3.5 Times
Riff 1.C - 1 Time
Riff 1.D - 1 Time
Riff 1.B - 2.5 Times
Riff 1.C - 1 Time
Riff 1.D - 1 Time
Riff 1.B - 5.5 Times
Riff 1.C - 1 Time
Riff 1.D - 1 Time
Riff 1.B - 3 Times
Riff 1.E - 1 Time


Текст, аккорды и табулатура для песни "God Of Thunder", исполняет "Death".
Используемые в песне аккорды можно найти в разделе Как брать аккорды. Аккорды для шестиструнной гитары. Другие песни можно найти на нашем сайте, воспользовавшись алфавитным указателем вверху страницы.


 
Ошибка в тексте? Выделите ошибку и нажмите Ctrl+Enter