DEATH - COSMIC SEA
                        From the Album HUMAN
                Copyright 1991 RELATIVITY RECORDS
            Version 1.0 - 11/2000 Transcribed by: Kai Huovinen


For Questions, Comments, Newest Version, or Corrections contact
Kai Huovinen: at [email protected]

Check Out Death Warp, With More Transcriptions On It:
http://tiger.towson.edu/~dalvis1

..  - palm mute          /  - slide up to
   - slide down to      ~  - vibrato h  - hammer on          b  - bend
 p  - pull off            Suffixes for bend
                          ph - pinch harmonic
                           f - full bend    h - half bend
*  - see comment           r - release      t - tap bend
X  - percussion mute       ~ - vibrato bend
@  - slight palm mute     () - ghost note, sustained note


Tune Gtr to D
|-----------------------------------------------------------------|
|-----------------------------------------------------------------|
|-----------------------------------------------------------------|
|-----------------------------------------------------------------| GTR 1
|-----------------------------------------------------------------|
|-7-7-7-7-7-7-7-7-7-7-7-7-7-7-7-7-8-8-8-8-8-8-8-8-8-8-8-8-8-8-8-8-|
|                                                                 |
|--------------------------------------------------p-p--------1214|
|-------------------------------------------------131210----13----|
|-------------------------------------111211------------1214------| GTR 2
|---------9-9-8-8-----11119-9-11121414----------14----------------|
|-----9-9---------9-9---------------------------------------------|
|-7-7-------------------------------------------------------------|


|-----------------------------------------------------------------|
|-----------------------------------------------------------------|
|-----------------------------------------------------------------|
|-----------------------------------------------------------------| GTR 2
|-----------------------------------------------------------------|
|-5-5-5-5-5-5-5-5-5-5-5-5-5-5-5-5-5-5-5-5-5-5-5-5-5-5-5-5-5-5-5-5-|
|                                                                 |
|-15-12---12-----sl-----------------------------------------------|
|-------13--13--1213----------------------------------------------|
|-------------14------14------------------------------------------|
|-------------------------14--------------------------------------| GTR 2
|-----------------------------15--14--15--11--12------------------|
|-----------------------------------------------------------------|


|-----------------------------------------------------------------|
|------------------------------------p--p-------------------------|
|-10------14----------17--1617----19--171614----------------------|
|-----12------14---/15--15------------------1714------------------|
|-----------------------------------------------1714------15------|
|-----------------------------------------------------------------|


|-----------------------------------------------------------------|
|-------------------------1312-----h----------13--12--------------|
|-------9-12---------12-16----14--1112----------------------------|
|----9--------141214----------------------14----------------------|
|-7-----------------------------------15--------------------------|
|-----------------------------------------------------------------|


|-------------------------------------17------14------------------|
|-----------------15--14------14--15------15------15--------------|
|-------------16----------16--------------------------16----------|
|-----16--17----------------------------------------------17--16--|
|-14--------------------------------------------------------------|
|-----------------------------------------------------------------|


|-----------------------------------------------------------------|
|-----------------------------18------------------15--16--15-----|
|---------19--17--20--19--17----------17--16--17------------------|
|-----17----------------------------------------------------------|
|-15--------------------------------------------------------------|
|-----------------------------------------------------------------|


|--------------------------------------------------------12-1013--|
|---------------------------------------------10--9h1012----------|
|---------------------------------9---7---10----------------------|
|---------------------7---6h7-9-----------------------------------|
|---------7---5---8-----------------------------------------------|
|-5---8-----------------------------------------------------------|


|/17--------------20------19--17--16--17--------------------------|
|-----------------------------------------20-19-17----17----------|
|-------------------------------------------------19------19^21---|
|-----------------------------------------------------------------|
|-----------------------------------------------------------------|
|-----------------------------------------------------------------|


|-----------------------------------------------------------------|
|-17--16------1617191716------1617191716--------------------------|
|-------1917------------1917------------1916/17-191716----------16|
|-----------------------------------------------------1917161719--|
|-----------------------------------------------------------------|
|-----------------------------------------------------------------|


|-----------------------------------------------------------------|
|-----------------------------------------------------------------|
|-17191716--------------------------------------------------------|
|---------19171617191716--------1617191716----hp------------------|
|-----------------------1917--19----------19171917----------------|
|-------------------------------------------------19--17~~--------|


|---------------------------------12--1712----12-------b----------|
|-----------------------------------------13------13---^1513------|
|----------------------------12-14----------------------------14--|
|-----------11121411--13--15--------------------------------------|
|-----12--14------------------------------------------------------|
|-----------------------------------------------------------------|


|-----------------------------------------------------------------|
|-------------------------------------------------ah--------------|
|-----14------------------------------------------9--^10^9^10^9---|
|-15------15--141214--1210----12--10--9---7-----------------------|
|-------------------------14--------------------------------------|
|-----------------------------------------------------------------|

Check Out Death Warp, With More Transcriptions On It:
http://tiger.towson.edu/~dalvis1


Текст, аккорды и табулатура для песни "Cosmic Sea", исполняет "Death".
Используемые в песне аккорды можно найти в разделе Как брать аккорды. Аккорды для шестиструнной гитары. Другие песни можно найти на нашем сайте, воспользовавшись алфавитным указателем вверху страницы.


 
Ошибка в тексте? Выделите ошибку и нажмите Ctrl+Enter