DEADSY - TOM SAWYER

Tabbed By: drew

E-Mail: [email protected]

wow, this site is in need of some decent Deadsy tabs, no offense, the other
Tom Sawyer is alright, but i can garantee this one will blow that one away.
questions, comments, praise will all be appreciated, this tab is 99.9% perfect.
(timing not exact)

TUNING: low to high: B/E/A/G/F#/B (yes that is low i know)
        Lots of Distortion
 
Riff 1 - 0:00 - 2:14
B|----------------------------------------------------|----------------|
F|----------------------------------------------------|----------------|
G|----------------------------------------------------|----------------|
A|----------------9----------7---------------------5--|---5-4-2--5-4-2-|
E|-2--------------7----------5----------7----------3--|---3-2-0--3-2-0-|
B|-0-------0-0-0------0-0-0------0-0-0--5---0-0-0-----|----------------|
pm         * * *      * * *      * * *      * * *

Riff 2 - 0:35 - 2:39
B|---------------------------------------------------------------------
F|---------------------------------------------------------------------
G|---------------------------------------------------------------------
A|---------9-x-9-9-x-11/12/11----------7-x-7-7-7-----------------------
E|---------7-x-7-7-x- 9/10/ 9----------5-x-5-5-5-----------------------
B|--0-0-0-----------------------0-0-0----------------------------------
pm  * * *                       * * *

B|---------------------------------------------------------------------|
F|---------------------------------------------------------------------|
G|---------------------------------------------------------------------|
A|----------------------5-4-2------------------------------------------|
E|---------7-x-7-7-7----3-2-0---3-2-0----------------------------------|
B|--0-0-0--5-x-5-5-5---------------------------------------------------|
pm  * * *

Intrelude - 0:45 - 2:50
(little hard and a little hard to hear, but trust me its right)
use fingerpicking
B|-----0-----0------0-----0-------0-----0---------0-----0--------------|
F|-------------0------------0------------------------------------------|
G|---------------------------------------------------------------------|
A|-----------------------------2---------------------------------------|
E|-----------------------------------3-----0h3p2-----0-----------------|
B|--0-----2------3-----5-----------------------------------------------|


Riff 3 - 1:02 - 3:06
B|-------|------------|------------------------------------------------|
F|-------|------------|------------------------------------------------|
G|-------|------------|------------------------------------------------|
A|-------|--222--4----|--4----------2-------4---2------2-------9-------|
E|-------|--000--2----|--2----------0---5---2---0---5--0-------7-------|
B|--3h2--|------------|-----------------3-----------3------------------|
    4x                   


Synth Solo translated into Guitar - 1:32
B|--17-14-16----14-----17-14-16----------------------------------------|
F|-----------17----15-----------17-15----------------------------------|
G|------------------------------------16-------------------------------|
A|---------------------------------------------------------------------|
E|---------------------------------------------------------------------|
B|---------------------------------------------------------------------|

Guitar Solo 1:55
B|----------------------------|----------------------------------------|
F|----------------------------|----------------------------------------|
G|----------------------------|----------------------------------------|
A|--7-4-6---4----7-4-6--------|----------------------------------------|
E|--------7---5--------7-5----|-------5--------------------------------|
B|-------------------------7--|---5-7----------------------------------|
                                  after 4x
B|---------------------------|-----------------------------------------|
F|---------------------------|-----------------------------------------|
G|---------------------------|-----------------------------------------|
A|--7-4-6---4----7-4-6-------|-----------------------------------------|
E|--------7---5--------7-5---|-------5-7-------------------------------|
B|-------------------------7-|---5-7-----------------------------------|
                                 after 4 x

synth solo comes back, just fallow timing and end on a bend string when appropriate - 3:40

Outro - 3:47
B|--------------------------------------------------------------------|
F|--------------------------------------------------------------------|
G|--------------------------------------------------------------------|
A|------2-------4-------2-------4-------------------------------------|
E|----2-------4-------2-------4---------------------------------------|
B|--0----0--2----0--0----0--2----0------------------------------------|

And that is it!!!!! you know where to send praise for finally a good Deadsy tab!!!!


Текст, аккорды и табулатура для песни "Tom Sawyer", исполняет "Deadsy".
Используемые в песне аккорды можно найти в разделе Как брать аккорды. Аккорды для шестиструнной гитары. Другие песни можно найти на нашем сайте, воспользовавшись алфавитным указателем вверху страницы.


 
Ошибка в тексте? Выделите ошибку и нажмите Ctrl+Enter