Artist:Dead Poetic
Song:Burgundy
Album:Four Wall Blackmail
Drop D Tuning
Submitted By: Stand Alone ([email protected])

Verse (x4)
G------------------- 
D------------------- 
A------------------- 
D-4--6--1/2-------4-

Pre-Chorus (x4)
G-------------------- 
D-------------------- 
A-------------------- 
D-----2------------4- 
play this on the last time 


Chorus (x4)
G----------------------- 
D----------------------- 
A----------------------- 
D----6-----2-----1---2-- 

Verse (x4)
Pre-Chorus (x4)
Chorus (x4)

Bridge (x 8)
G--------------------- 
D--------------------- 
A--------------------- 
D ----4—--------------
only in the beginning of bridge

G---------------------------
D---------------------------
A---------------------------
D----6----1/2----1/2---4---- 
play this part on the last time

Chorus (x4)

Bridge 2 (x4)
G------------------------------- 
D------------------------------- 
A------------------------------- 
D ----6x----1x/2x----1x/2x--4---


Текст, аккорды и табулатура для песни "Burgundy", исполняет "Dead Poetic".
Используемые в песне аккорды можно найти в разделе Как брать аккорды. Аккорды для шестиструнной гитары. Другие песни можно найти на нашем сайте, воспользовавшись алфавитным указателем вверху страницы.


 
Ошибка в тексте? Выделите ошибку и нажмите Ctrl+Enter