Band:Dead Kennedys
Song:When Ya Get Drafted
Tabbed by oppressor


1st part x2                  2nd part x1
e-----------------------     ----------------------------    
b-----------------------     ---------------------------- 
g----------------9999---     ----------12111111111111---
d---1111-99-1111-9999---     ---999999-12111111111111---
a---1111-99-1111-7777---     ---999999-10-9-9-9-9-9-9---
e----9-9-77--9-9--------     ---777777-------------------

3rd part x2
e--------------------------------------------
b--------------------------------------------
g----------------------12111111-12111111---
d-999999-444444-777777-12111111-12111111---
a-999999-444444-777777-10-9-9-9-10-9-9-9---
e-777777-222222-555555-----------------------

4th part x1
e-------------------------------
b-------------------------------
g-------------------------------
d-999999-444444-777777-222222---
a-999999-444444-777777-222222---
e-777777-222222-555555-000000---

5th part x1
e----------------------------------
b----------------------------------
g---------------------6666666666---
d-999999-444444-77777-6666666666---
a-999999-444444-77777-4444444444---
e-777777-222222-55555--------------

6th part x2
e--------------------------------------
b--------------------------------------
g--------------------------------------
d--------------------------------------
a--------------------------------------
e---2-2-3-0--2-2-3-0--2-2-3-0-222222---

1st part x2
3rd part x2
4th part x1
5th part x1
6th part x2

7th part x1
e--------------------------------------
b--------------------------------------
g--------------------------------------
d--------------------------------------
a---2-2-3-0--2-2-3-0--2-2-3-0-222222---
e--------------------------------------

8th part x1
e-------------------------------
b-------------------------------
g-------------------------------
d-------------------------------
a-------------------------------
e---2-2-3-0--2-2-3-0--2-2-3-0---

Solo:
e------15~14~---13~---12~------15~14~---13~---12~---
b---12~------15~---14~---13~12~------15~---14~------
g---------------------------------------------------
d---------------------------------------------------
a---------------------------------------------------
e---------------------------------------------------

e------19~18~---17~---16~------19~18~---17~---191919191919---
b---17~------19~---18~---18~17~------19~---18~181818181818---
g------------------------------------------------------------
d------------------------------------------------------------
a------------------------------------------------------------
e------------------------------------------------------------

6th part x1
8th part x1

Outro:
e----------------
b----------------
g----------------
d----------------
a---4-4444-4-4---
e---2-2222-2-2---

Very fast and easy to play and I am sure it is 100% accurate.
Any questions or comments email me at [email protected]
If you have any time please rate my tab.


Текст, аккорды и табулатура для песни "When Ya Get Drafted", исполняет "Dead Kennedys".
Используемые в песне аккорды можно найти в разделе Как брать аккорды. Аккорды для шестиструнной гитары. Другие песни можно найти на нашем сайте, воспользовавшись алфавитным указателем вверху страницы.


 
Ошибка в тексте? Выделите ошибку и нажмите Ctrl+Enter