Dead Kennedys - Give Me Convenience Or Give Me Death - Holiday in Cambodia


Intro 

	            Repeat 16x
E---15--------|----------------|
B---------13--|----------------|
G---------------|.-----14----14-.|
D---------------|.--------------.|
A---------------|---12----12-----|
E---------------|----------------|



             Repeat 2x
E|--------------------------------|
B|--------------------------------|
G|.---14-----98----5-----1110--.|
D|.------------------------------.|
A|--12--12-0-76---3-3-0--98-----|
E|--------------------------------|



Riff 1


              Repeat 2x
E|-----------------------------------|
B|-----------------------------------|
G|.---------------------------------.|
D|.---------------------------------.|
A|--3-3-3-2-2-2-1-1-0-0-0-0-0-0-0-0--|
E|-----------------------------------|                                 


Palm mute!
	      Repeat 4x
E|-----------------------------------|
B|-----------------------------------|
G|.---------------------------------.|
D|.---------------------------------.|
A|--3-3-3-2-2-2-1-1-0-0-0-0-0-0-0-0--|
E|-----------------------------------| 




Riff 2

       	   Repeat 4x
E|-------7------------10-----|
B|--------7--------------10--|
G|.--7-----------11---------.|
D|.-9----------12-----------.|
A|---------------------------|
E|---------------------------|
    Bm         D



Riff 3

			     Repeat 2x
E|-------------------------------------------------------------------|
B|-------------------------------------------------------------------|
G|.-7-7-7-7-7-7-7-7-5-5-5-5-5-5-5-5---------5-5-5-5-----------------.|
D|.---------------------------------5-5-5-5---------7-7-7-7-7-7-7-7-.|
A|-------------------------------------------------------------------|
E|-------------------------------------------------------------------|



Riff 4

				Repeat 2x
E|----------5-5-------------7-7-----------------8-8----------------7-7------|
B|------6-6-------------8-8---------------10-10----------------8-8----------|
G|.-7-7---------7-7-9-9---------9-9-10-10-----------10-10--9-9---------9-9-.|
D|.------------------------------------------------------------------------.|
A|--------------------------------------------------------------------------|
E|--------------------------------------------------------------------------|
   Dm		    Em		    F			   Em




Riff 1
So you been to school for a year or two
And you know you've seen it all
In daddy's car thinkin' you'll go far
Back east your type don't crawl

Riff 2
Play ethnicky jazz to parade your snazz
On your five grand stereo
Braggin that you know how the niggers feel cold
And the slums got so much soul

Riff 3
It's time to taste what you most fear
Right Guard will not help you here

Riff 4
Brace yourself, my dear
Brace yourself, my dear


Chords:
   A  C   D   F
E|-5--8---10--13|
B|-5--8---10--13|
G|-6--9---11--14|
D|-7--10--12----|
A|-7--10--12----|
E|-5--8---10----|


       A          C  D
It's a holiday in Cambodia
C    A             C    D
It's tough kid but it's life
C      A          C  D
It's a holiday in Cambodia
C     A              G F
Don't forget to pack a wife


Riff 1
You're a Star-Belly Sneech you suck like a leech
You want everyone to act like you
Kiss ass while you bitch so you can get rich 
But your boss gets richer off you

Riff 2     
Well you'll work harder with a gun in your back
For a bowl of rice a day
Slave for soldiers till you starve
Then your head is skewered on a stake

Riff 3
Now you can go where the people are one
Now you can go where they get things done

Riff 4
What you need, my son
What you need, my son


       A       C     D
It's a holiday in Cambodia
C     A            C  D
Where people dress in black
C A          C  D
A holiday in Cambodia
C     A               G  F
Where you'll kiss ass or crack



E|-17-17-17...-18-18-18...-19-19-19...-18-18...-|
B|------------------------------------------------|


             Repeat 2x
E|--------------------------------|
B|--------------------------------|
G|.---14-----98----5-----1110--.|
D|.------------------------------.|
A|--12--12-0-76---3-3-0--98-----|
E|--------------------------------|

       Repeat 2x
A|:-3-0-1-2-3-0-1-2-:|


Repeat 2x Riff 3


Quints:

   A5  C5  D5  F5
E|---------------|
B|---------------|
G|-----5---7-----|
D|-7---5---7---3-|
A|-7---3---5---3-|
E|-5-----------1-|


A5  C5   D5  F5   A5  C5   D5  F5 
Pol Pot, Pol Pot, Pol Pot, Pol Pot...


       A          C  D
It's a holiday in Cambodia
C     A              C    D
Where you'll do what your told
C A          C  D
A holiday in Cambodia
C         A            G    F       C    A
Where the slums got so much soul    Pol  Pot


Текст, аккорды и табулатура для песни "Holiday In Cambodia", исполняет "Dead Kennedys".
Используемые в песне аккорды можно найти в разделе Как брать аккорды. Аккорды для шестиструнной гитары. Другие песни можно найти на нашем сайте, воспользовавшись алфавитным указателем вверху страницы.


Слушать онлайн Holiday In Cambodia


Dead KennedysHoliday In Cambodia на Яндекс.Музыке


 
Ошибка в тексте? Выделите ошибку и нажмите Ctrl+Enter