Ветер.
Концерт Юрия Шевчука в СПГПУ.

Вступление:
  Em         C          Am        D
1|------0---------0----------0----------2^3^2--------   |
2|------0---------1----------1----------------3------   |
3|----0---0-----0---0------2---2-----3----------2----   |2-раза.
4|---------------------------------------------------   |
5|--2---------3----------0---------0-----------------   |
6|---------------------------------------------------   |

Куплет:
  Em          C         Am       D
1|------0---------0----------0---------3-------------   |
2|------0---------1----------1---------2-------------   |
3|----0---0-----0---0------2---2-----3---3-----------   |
4|---------------------------------------------------   |
5|--2---------3----------0---------0-----------------   |
6|---------------------------------------------------   |
     О прекрасная    даль,     поглотившая 
  Em           C          Am        D
1|------0---------0----------0----------2^3^2--------   |
2|------0---------1----------1----------------3------   |
3|----0---0-----0---0------2---2-----3----------2----   |
4|---------------------------------------------------   |
5|--2---------3----------0---------0-----------------   |
6|---------------------------------------------------   |
    небо
    Em          C          Am        D
1|------0---------0----------0---------3-------------   |
2|------0---------1----------1---------2-------------   |
3|----0---0-----0---0------2---2-----3---3-----------   |
4|---------------------------------------------------   |
5|--2---------3----------0---------0-----------------   |
6|---------------------------------------------------   |
     Облака, как к любимой, прижались к
  Em           C          Am        D
1|------0---------0----------0----------2^3^2--------   |
2|------0---------1----------1----------------3------   |
3|----0---0-----0---0------2---2-----3----------2----   |
4|---------------------------------------------------   |
5|--2---------3----------0---------0-----------------   |
6|---------------------------------------------------   |
   земле
  Em           C          Am        D
1|------0---------0----------0---------3-------------   |
2|------0---------1----------1---------2-------------   |
3|----0---0-----0---0------2---2-----3---3-----------   |
4|---------------------------------------------------   |
5|--2---------3----------0---------0-----------------   |
6|---------------------------------------------------   |
Где ты и я под простой да нескошенной кр- 
  Em           C          Am        D
1|------0---------0----------0----------2^3^2--------   |
2|------0---------1----------1----------------3------   |
3|----0---0-----0---0------2---2-----3----------2----   |
4|---------------------------------------------------   |
5|--2---------3----------0---------0-----------------   |
6|---------------------------------------------------   |
   -ышей     
  Em         C          Am        D
1|------0---------0----------0---------3-------------   |
2|------0---------1----------1---------2-------------   |
3|----0---0-----0---0------2---2-----3---3-----------   |
4|---------------------------------------------------   |
5|--2---------3----------0---------0-----------------   |
6|---------------------------------------------------   |
    Ищем                   друг в друге


 Em           C          Am        D
1|------0---------0----------0---------3-------------   |
2|------0---------1----------1---------2-------------   |
3|----0---0-----0---0------2---2-----3---3-----------   |
4|---------------------------------------------------   |
5|--2---------3----------0---------0-----------------   |
6|---------------------------------------------------   |
    тепло.   Что, что,             Что нам

Припев:

  G                    D
1|------3---------3----------2---------2-------------   |
2|------3---------3----------3---------3-------------   |
3|----0---0-----0---0------2---2-----2---2-----------   |
4|---------------------------------------------------   |
5|--2---------2----------0---------0-----------------   |
6|---------------------------------------------------   |
   Ве-е-ете-е-ер          Да на это от-
  Em                               C
1|------0---------0-----------------------0----------   |
2|------0---------0-----------------------1----------   |
3|----0---0-----0---0------0----0-------0---0--------   |
4|-----------------------2----2----------------------   |
5|--2---------2----------------------3---------------   |
6|---------------------------------------------------   |
 -ве-е-етит                          Несущейся
   Am                      D
1|------0---------0----------2---------2-------------   |
2|------1---------1----------3---------3-------------   |
3|----2---2-----2---2------2---2-----2---2-----------   |
4|---------------------------------------------------   |
5|--0---------0----------0---------0-----------------   |
6|---------------------------------------------------   |
  ми-и-и-мо               Да сломавший кры-
  G                       D
1|------3---------3-------------2---------2----------   |
2|------3---------3-------------3---------3----------   |
3|----0---0-----0---0---------2---2-----2---2--------   |
4|---------------------------------------------------   |
5|--2---------2-------------0---------0--------------   |
6|---------------------------------------------------   |
   ло-о-о                       И упав между

  G                     D
1|------3---------3----------2---------2-------------   |
2|------3---------3----------3---------3-------------   |
3|----0---0-----0---0------2---2-----2---2-----------   |
4|---------------------------------------------------   |
5|--2---------2----------0---------0-----------------   |
6|---------------------------------------------------   |
    на-а-а-ми               так недолго лю-ю-
Em                                 C
1|------0---------0-----------------------0----------   |
2|------0---------0-----------------------1----------   |
3|----0---0-----0---0------0----0-------0---0--------   |
4|-----------------------2----2----------------------   |
5|--2---------2----------------------3---------------   |
6|---------------------------------------------------   |
    -би-имых                         Разбил он




  Am                     D
1|------0---------0-----------------2^3^2--------0---   |
2|------1---------1------------3-----------3-----0---   |
3|----2---2-----2---2--------2---2-----------2---0---   |
4|-------------------------0-------------------------   |
5|--0---------0----------------------------------2---   |
6|---------------------------------------------------   |
     Объя-а-а-тья              как простое стекло

Проигрыш:

  Em           C          Am        D
1|-0-----0---------0----------0----------2^3^2--------   |
2|-0-----0---------1----------1----------------3------   |
3|-0---0---0-----0---0------2---2-----3----------2----   |2-раза.
4|----------------------------------------------------   |
5|-2-----------3----------0---------0-----------------   |
6|----------------------------------------------------   |

Куплет 2:
(также как 1)
  
    Мы стояли на прошлом, мы ждали начала,
    Прижимаясь к стене, где исчезли они.
    Где еще одну жизнь одна смерть обвенчала
    Парой вспышек огня да в эти смутные дни.

Припев по табулатуре:
Проигрыш один раз:
Припев боем:


Текст, аккорды и табулатура для песни "Ветер", исполняет "ДДТ".
Используемые в песне аккорды можно найти в разделе Как брать аккорды. Аккорды для шестиструнной гитары. Другие песни можно найти на нашем сайте, воспользовавшись алфавитным указателем вверху страницы.


 
Ошибка в тексте? Выделите ошибку и нажмите Ctrl+Enter